Ill Make You Sorry

Screaming Females

Bass Intro 

G|---------------------------------------------------------------------------| 
D|---------------------------------------------------------------------------| 
A|-------------------4-4-4-4-4-4-4-4--7-7-7-7-7-7-7-7-7-7-7-7-7-7-7-7--------| 
E|--5-5-5-5-5-5-5-5----------------------------------------------------------|x2 

Guitar pre-verse 

e|---------------------------------------------------------------------------| 
B|---------------------------------------------------------------------------| 
G|---------14-14-14---11--11--13--13--13/14\13-13\11\9-9-9-9-9-9--8-8-6-6----| 
D|---------------------------------------------------------------------------| 
A|---------12-12-12---9---9---11--11--11/12\11-11\9\=7-7-7-7-7-7--6-6-4-4----| 
E|--0-0-0--------------------------------------------------------------------|x2 


Verse 

e|---------------------------------------------------------------------------| 
B|------------14--9---------------------------14--9--------------------------| 
G|---9--9-9---14--9------------------9--9-9---14--9--------------------------| 
D|---9--9-9---14--9------------------9--9-9---14--9--------------------------| 
A|---7--7-7-----------7~7~7~7~-------7--7-7-----------7~7~7~7----------------| 
E|---------------------------------------------------------------------------| 

e|-----------------------------------------------------------------------------| 
B|------------------------------------------------------------------=======----| 
G|---7--7-7----===---9----12--12-12-------====-9------7---7-7-----7----7-----7-| 
D|---7--7-7--===-----9----12--12-12---====-----9-===========-=================-| 
A|---5--5-5----------7----10--10-10------------7=============-===============--| 
E|------------------------------------------==================-==========------|x2 

Verse Ending 1st Time 

e|---------------------------------------------------------------------------| 
B|---------------------------------------------------------------------------| 
G|------7~~---7~~---7~~---7~~---7~~---7~~------------------------------------| 
D|---------------------------------------------------------------------------| 
A|---------------------------------------------------------------------------| 
E|---------------------------------------------------------------------------| 

Verse Ending 2nd Time 

     PM PM PM PM 
e|---------------------------------------------------------------------------| 
B|---------------------------------------------------------------------------| 
G|---9-9-9-9-9-9-9-9-9-9-9-------------------------------------------------------------| 
D|---9-9-9-9-9-9-9-9-9-9-9-------------------------------------------------------------| 
A|---7-7-7-7-7-7-7-7-7-7-7-------------------------------------------------------------| 
E|---------------------------------------------------------------------------| 


1st Chorus 

e|---------------------------------------------------------------------------| 
B|----------------5--5-5-----------------------------------------------------| 
G|----------------6--6-6--------7~~--7~~---7~~--7~~--7~~~7~~--7~~--7~~-------| 
D|---7---7-7------6--6-6-----------------------------------------------------| 
A|---7---7-7------4--4-4-----------------------------------------------------| 
E|---5---5-5-----------------------------------------------------------------| 

e|---------------------------------------------------------------------------| 
B|----------------5--5-5-----------------------------------------------------| 
G|----------------6--6-6--------7~~--7~~---7~~--7~~--7~~~7~~--7~~--7~~-------| 
D|---7---7-7------6--6-6-----------------------------------------------------| 
A|---7---7-7------4--4-4-----------------------------------------------------| 
E|---5---5-5-----------------------------------------------------------------| 

Guitar pre-verse 

e|-------------------------------------------------------------------------------| 
B|-------------------------------------------------------------------------------| 
G|---------14-14-14---11--11--13--13--13-14-13-13-11-9-9-9-9-9-9--8-8--6-6-------| 
D|-------------------------------------------------------------------------------| 
A|---------12-12-12---9---9---11--11--11/12\11-11\9\-7-7-7-7-7-7--6-6--4-4-------| 
E|--0-0-0------------------------------------------------------------------------|  x2 


Verse 

e|---------------------------------------------------------------------------| 
B|------------14--9---------------------------14--9--------------------------| 
G|---9--9-9---14--9------------------9--9-9---14--9--------------------------| 
D|---9--9-9---14--9------------------9--9-9---14--9--------------------------| 
A|---7--7-7-----------7~7~7~7~-------7--7-7-----------7~7~7~7----------------| 
E|---------------------------------------------------------------------------| 

e|-----------------------------------------------------------------------------| 
B|------------------------------------------------------------------=======----| 
G|---7--7-7----===---9----12--12-12-------====-9------7---7-7-----7----7-----7-| 
D|---7--7-7--===-----9----12--12-12---====-----9-===========-=================-| 
A|---5--5-5----------7----10--10-10------------7=============-===============--| 
E|------------------------------------------==================-==========------|  x2 

Verse Ending 1st Time 

e|---------------------------------------------------------------------------| 
B|---------------------------------------------------------------------------| 
G|------7~~---7~~---7~~---7~~---7~~---7~~------------------------------------| 
D|---------------------------------------------------------------------------| 
A|---------------------------------------------------------------------------| 
E|---------------------------------------------------------------------------| 

Verse Ending 2nd Time 

     PM PM PM PM 
e|---------------------------------------------------------------------------| 
B|---------------------------------------------------------------------------| 
G|---9-9-9-9-9-9-9-9-9-9-9---------------------------------------------------| 
D|---9-9-9-9-9-9-9-9-9-9-9---------------------------------------------------| 
A|---7-7-7-7-7-7-7-7-7-7-7---------------------------------------------------| 
E|---------------------------------------------------------------------------| 

2nd Chorus 

e|---------------------------------------------------------------------------| 
B|----------------5--5-5-----------------------------------------------------| 
G|----------------6--6-6--------7~~--7~~---7~~--7~~--7~~~7~~--7~~--7~~-------| 
D|---7---7-7------6--6-6-----------------------------------------------------| 
A|---7---7-7------4--4-4-----------------------------------------------------| 
E|---5---5-5-----------------------------------------------------------------| 

                                PM       PM       PM 
e|---------------------------------------------------------------------------| 
B|-----------------5--5-5----------------------------------------------------| 
G|-----------------6--6-6-------9-9--9----9-9--9----9-9-9--------------------| 
D|---7--7-7--------6--6-6-------9-9--9----9-9--9----9-9-9--------------------| 
A|---7--7-7--------4--4-4-------7-7--7----7-7--7----7-7-7--------------------| 
E|---5--5-5------------------------------------------------------------------| 

e|---------------------------------------------------------------------------| 
B|----------------5--5-5-----------------------------------------------------| 
G|----------------6--6-6--------7~~--7~~---7~~--7~~--7~~~7~~--7~~--7~~-------| 
D|---7---7-7------6--6-6-----------------------------------------------------| 
A|---7---7-7------4--4-4-----------------------------------------------------| 
E|---5---5-5-----------------------------------------------------------------| 

                                PM       PM       PM 
e|---------------------------------------------------------------------------| 
B|-----------------5--5-5----------------------------------------------------| 
G|-----------------6--6-6-------9-9--9----9-9--9----9-9-9--------------------| 
D|---7--7-7--------6--6-6-------9-9--9----9-9--9----9-9-9--------------------| 
A|---7--7-7--------4--4-4-------7-7--7----7-7--7----7-7-7--------------------| 
E|---5--5-5------------------------------------------------------------------| 

Bass Bridge 

G|---------------------------------------------------------------------------| 
D|---------------------------------------------------------------------------| 
A|------------------4-4-4-4-4-4-4-4--7-7-7-7-7-7-7-7-7-7-7-7-7-7-7-7---------| 
E|--5-5-5-5-5-5-5-5----------------------------------------------------------|  x2 

Solo 


E|-----------------------------------| 
B|-----------17----------------------| 
G|--9--9/16------16--16--16--14--14--| 
D|-----------------------------------| 
A|-----------------------------------| 
E|-----------------------------------| 


E|-------------------------------------------------------------------------------------------------------| 
B|-------------------------------------------------------------------------------------------------------| 
G|--14--13h14p13h14--16--13h14p13------13----------------------------------------------------------------| 
D|---------------------------------16------16--16b16--14---------------------------------18------18--19--| 
A|--------------------------------------------------------17--16--17--16--14--14/21--21------21----------| 
E|-------------------------------------------------------------------------------------------------------| 


E|-------------------------------------| 
B|-------------------------------------| 
G|-----13--14--9--9--9--7--7--7--6-----| 
D|-------------------------------------| 
A|-----11--12--7--------------------9--| 
E|-------------------------------------| 


E|--------------------------------------------------7-----7h9p7-----12--| 
B|-----------------7--------9--9--9b10--9--7--7--9-----9---------9------| 
G|-----6--9-----6--------6----------------------------------------------| 
D|--9--------9--------9-------------------------------------------------| 
A|----------------------------------------------------------------------| 
E|----------------------------------------------------------------------| 


E|--12------12-----10------10-----9------9--------------------------------------------------| 
B|------12-------------12------------10-----12--9--12---10------10-----9-----9--------------| 
G|----------------------------------------------------------11------------9-----11----------| 
D|----------------------------------------------------------------------------------12--11--| 
A|------------------------------------------------------------------------------------------| 
E|--12--------------------------------------------------------------------------------------| 


E|--0--0--0--0--0--0--0---0---0--0--0---0---0---0---0---0---0---0---0---0---0---0---0---0------------| 
B|--5--5--7--7--9--9--10--10--9--9--10--10--12--12--14--14--16--16--17--17--16--16--17--17/------22--| 
G|---------------------------------------------------------------------------------------------------| 
D|---------------------------------------------------------------------------------------------------| 
A|---------------------------------------------------------------------------------------------------| 
E|---------------------------------------------------------------------------------------------------| 


E|-------------------------------------------------| 
B|-------------------------------------------------| 
G|--13--13--13--14--13--13--14-----9--9--9--11--6--| 
D|-------------------------------------------------| 
A|--11--11--11--12--11--11--12-----7--7--7--9---4--| 
E|-------------------------------------------------| 


E|--------------------------------------------| 
B|--------------------------------------------| 
G|--9--7--7--9--13b14--14--13--11--11--13--9--| 
D|--------------------------------------------| 
A|---------------------12--11--9---9---11--7--| 
E|--------------------------------------------| 


3nd Chorus 

e|---------------------------------------------------------------------------| 
B|----------------5--5-5-----------------------------------------------------| 
G|----------------6--6-6--------7~~--7~~---7~~--7~~--7~~~7~~--7~~--7~~-------| 
D|---7---7-7------6--6-6-----------------------------------------------------| 
A|---7---7-7------4--4-4-----------------------------------------------------| 
E|---5---5-5-----------------------------------------------------------------| 

                                PM       PM       PM 
e|---------------------------------------------------------------------------| 
B|---------------------------------------------------------------------------| 
G|-----------------6--6-6-------9-9--9----9-9--9----9-9-9--------------------| 
D|---7--7-7--------6--6-6-------9-9--9----9-9--9----9-9-9--------------------| 
A|---7--7-7--------4--4-4-------7-7--7----7-7--7----7-7-7--------------------| 
E|---5--5-5------------------------------------------------------------------| 

e|---------------------------------------------------------------------------| 
B|----------------5--5-5-----------------------------------------------------| 
G|----------------6--6-6--------7~~--7~~---7~~--7~~--7~~~7~~--7~~--7~~-------| 
D|---7---7-7------6--6-6-----------------------------------------------------| 
A|---7---7-7------4--4-4-----------------------------------------------------| 
E|---5---5-5-----------------------------------------------------------------| 

                                PM       PM       PM 
e|---------------------------------------------------------------------------| 
B|-----------------5--5-5----------------------------------------------------| 
G|-----------------6--6-6-------9-9--9----9-9--9----9-9-9--------------------| 
D|---7--7-7--------6--6-6-------9-9--9----9-9--9----9-9-9--------------------| 
A|---7--7-7--------4--4-4-------7-7--7----7-7--7----7-7-7--------------------| 
E|---5--5-5------------------------------------------------------------------| 


Outro 

e|---------------------------------------------------------------------------| 
B|-----------------5--5-5----------------------------------------------------| 
G|-----------------6--6-6-------9-9--9----11---13----------------------------| 
D|---7--7-7--------6--6-6-------9-9--9---------13----------------------------| 
A|---7--7-7--------4--4-4-------7-7--7----9----11----------------------------| 
E|---5--5-5------------------------------------------------------------------|  



************************************ 


| h   Hammer-on 
| p   Pull-off 
| b   Bend 
| /   Slide up 
| \   Slide down 
| ~   Vibrato 
| PM  Palm mute 
|  Harmonic 

************************************ 

Compartilhe esta música: novo

QR Code
Copiar