Glass House

Screaming Females

Intro 
E|---------------------| 
B|---------------------| 
G|--9--9--7--9--9v-----|   X5 
D|--9--9--7--9--9v-----| 
A|--7--7--7------------| 
E|---------------------| 

verse 1 
E|---------------------------------------------------------------------------------------| 
B|-----10--8---------------------------------------10--8---------------------------------| 
G|--9---------9--7--5-----9--9--7--9--9v--------9---------9--7-----9--9--7--9--9v--------| 
D|------------------------9--9--7--9--9v---------------------------9--9--7--9--9v--------| 
A|------------------------7--7--7----------------------------------7--7--7---------------| 
E|---------------------------------------------------------------------------------------| 

E|-----------------------------------------------------------------| 
B|-----10--8---------------------------------------10--8-----------| 
G|--9---------9--7--5-----9--9--7--9--9v--------9---------9--7-----| Timing slightly changes on the last riff 
D|------------------------9--9--7--9--9v---------------------------| 
A|------------------------7--7--7----------------------------------| 
E|-----------------------------------------------------------------| 

verse 2 
E|--7---------------7-----------------------------------------| 
B|--8---------------10------------------17-----16-------------| 
G|--9--arpeggiate---7---arpeggiate------16-----14-------------|   Repeat once from intro 
D|--9---------------9-------------------14-----13-------------| 
A|--7---------------7-----------------------------------------| 
E|------------------------------------------------------------| 

Chorus/end 
E|--------------------------------------------------------------| 
B|--------------------------------------------------------------| 
G|--9---------7---------9-(X8)----8-(X8)------------------------| 
D|--9-(X8)----9-(X8)--------------------------------------------|  x9 
A|--7---------7-------------------------------------------------| 
E|--------------------------------------------------------------| 


(/) Slide Up  (\) Slide Down  (h) Hammer On  (p) Pull Off  (b) Bend (r) Release (v) Vibrato 

Compartilhe esta música: novo

QR Code
Copiar