Criminal Image

Screaming Females

Tom: E

Standard Tuning 
E A D G B E 


Intro / Chorus: 

E|------------------------------------------------------------------------------------------------| 
B|------------------------------------------------------------------------------------------------| 
G|------------------------------------------------------------------------------------------------| 
D|-----------------9------------------------------------------------------------------------------| 
A|--11--9--11--12------------5--5--2-----------------------------------5--5-----5-----------------| 
E|--------------------12-----3--3--0-----0--0-----0-----3--3-----3--------------------5--5-----5--| 

Verse: 

E|----------------------------------------------------------------------------------------| 
B|--------------------------15-----15--15--15--15--15--15--14-----14--14--14--14--14--14--| 
G|----------------------------------------------------------------------------------------| 
D|--14--14--14--14--14--14--14-----14--14--14--14--14--14--14-----14--14--14--14--14--14--| 
A|----------------------------------------------------------------------------------------| 
E|----------------------------------------------------------------------------------------| 


E|----------------------------------| 
B|----------------------------------| 
G|--9------9------9---9---9---7--9--| 
D|----------------------------------| 
A|--11-----11-----11--11--11--------| 
E|----------------------------------| 


Bridge (not complete. seems this is how she played it live in early 2015see https://youtu.be/7Ch3NW3ruRE): 

E|--7--7--10--10--5--5--| 
B|--9--9--10--10--5--5--| 
G|--9--9--9---9---7--7--| 
D|--9--9--9---9---7--7--| 
A|--7--7--7---7---5--5--| 
E|--7--7--7---7---5--5--| 

Compartilhe esta música: novo

QR Code
Copiar