Boyfriend

Screaming Females

Verse: 

e|---------------------------------------------------------------------------| 
B|---------------------------------------------------------------------------| 
G|---------------------------------------------------------------------------| 
D|---------------------------------------------------------------------------| 
A|-----------------5-----------------5-----------------5-5-77777-5-----------| 
E|---77-777-777--57-75--77-777-777-57-75--77-777-777-57-7----------7~--------| 

Chorus 

e|---------------------------------------------------------------------------| 
B|---------------------------------------------------------------------------| 
G|----------------------------x7-x7---9-9-9-9-9-9-9-9---5-5-5/12--12-12------| 
D|---9--9-9---7--7-7---9--9---x7-x7---9-9-9-9-9-9-9-9---5-5-5/12--12-12------| 
A|---9--9-9---7--7-7---9--9---x5-x5---7-7-7-7-7-7-7-7---7-7-7/10--10-10------| 
E|---7--7-7---5--5-5---7--7--------------------------------------------------| 


************************************ 

| /   slide up 
| \   slide down 
| h   hammer-on 
| p   pull-off 
| ~   vibrato 
| +   harmonic 
| x   Mute note 
| b   Bend 
| pb  Pre-bend 
| br  Bend release 
| pbr Pre-bend release 
| brb Bend release bend 

************************************ 

Compartilhe esta música: novo

QR Code
Copiar