Six Feet Under The Gun

Savage Messiah

Tom: C#
Tuning: C#, G#, C#, F#, A#, D#   


   Mid Tempo Rock = 150bpm 

   
 Intro: 

 |-----------------------------------------------| 
 |-----------------------------------------------| 
 |-----------------------------------------------| 
 |-----------------------------------------------| 
 |-0-0---------------------0-0-------------------| 
 |-0-0---0-0-0-0-0--0-0-0--0-0--0-0-0-0-0--0-0-0-| 


 Rhythm: 
 |----------------------------------------------------------------------------| 
 |----------------------------------------------------------------------------| 
 |----------------------------------------------------------------------------| 
 |----------------------------------------------------------------------------| 
 |-0-------------------6--------------6-0------------------------6---7---1----| 
 |-0--------0-300--100-6--------------6-0-------------0-300--100-6---7---1----| 
  
 Lead (with octave): 

 |-----------------------------------------------------------------------| 
 |---------------10---10-9~-------------------9--------10-------8--------| 
 |-7br(8)-5-7~-7----7---------7br(8)-5-7~-7---11b(12)--12b(14)--10b(12)--| 
 |-----------------------------------------------------------------------| 
 |-----------------------------------------------------------------------| 
 |-----------------------------------------------------------------------| 



  Main Riff: 

 |------------------------------------------------------------------------------------------| 
 |------------------------------------------------------------------------------------------| 
 |-----------------p----------------------------------------------p-------------------------| 
 |-------p--------4-0--8--------p----------------------p---------4-0--8-------p-----5-7-8-5-| 
 |-0----5-0-----p------6--0----5-0-----p---p--1--0----5-0------p------6-0----5-0----3-5-6-3-| 
 |-0-00-----00-1-0--------0-00-----00-1-0-4-0-1--0-00-----00-1-0--------0-00-----00---------| 


 Verse Riff: 
                             1.                 2. 
 |--------------------------|------------------|--------------------| 
 |--------------------------|------------------|--------------------| 
 |--------------------------|-10-6--7--9-7--9--|-12-10--9--10-7--9--| 
 |-------------------p---h--|------------------|--------------------| 
 |------------4\3---6-3-1-3-|-8--4--5--7-5--7--|-10-8---7--8--5--7--| 
 |-0-000-00-0-4\3-0-6-3-1-3-|------------------|--------------------| 
 |                          |                  |                    |  
 |                          |                  |                    | 
 |--------------------------|------------------|--------------------| 
 |--------------------------|------------------|--------------------| 
 |--------------------------|-14-9-10-12-10-12-|-15-14--12-14-10-12-| 
 |-------------------p---h--|------------------|--------------------| 
 |------------4\3---6-3-1-3-|-12-7-8--10-8--10-|-13-12--10-12-8--10-| 
 |-0-000-00-0-4\3-0-6-3-1-3-|------------------|--------------------| 



 Pre-Chorus 

 Rhythm: 
 |-------------------------------------------------| 
 |---------------------p------------------------2--| 
 |--------3-5-5br(7)(5)-3-5~--------5---------2----| 
 |-3----3----------------------5------5-----2------| 
 |-1--1------------------------3--3-----3-4--------| 
 |-------------------------------------------------| 


 Lead: 

 |---------------------------p-------------------------------------------| 
 |-------8-10-11-10br(11)(10)-8-10~--/10~-10-11-14-15b(17)16(17)(15)-15~-| 
 |-/7~-7-----------------------------------------------------------------| 
 |-----------------------------------------------------------------------| 
 |-----------------------------------------------------------------------| 
 |-----------------------------------------------------------------------| 



 Chorus: 
                 x3 
 |-----------------|---------------| 
 |-----------------|---------------| 
 |.---------------.|---------------| 
 |.---------------.|---------------| 
 |--0----1---4-3-1-|-3----3-6----3-| 
 |--0-00-1-1-4-3-1-|-3-33-3-6-55-3-| 


 Lead melody over 2nd half of Chorus: 

 |-----------------------------------------------------------------------------------------| 
 |-11---11--10---10---10--8---8---10---10---10---11---11--10---10---10--13~-11-10--8-10-11-| 
 |----7--------7----7-------7--------7----7---------7--------7----7------------------------| 
 |-----------------------------------------------------------------------------------------| 
 |-----------------------------------------------------------------------------------------| 
 |-----------------------------------------------------------------------------------------| 



 Pre solo Dual Lead Harmony: 

 Chords: C#5 B5 A5 G#5 


 Lead (with minor 3rd harmony on second repetition): 

 |--------------------------------------------------------------------------| 
 |----10~--------10-----------10--------h-p----------------h-p--------------| 
 |-7~-----7---5~-----5---3~--------3---2-3-2---2-3-5-3-2--2-3-2---2-3-5-3-2-| 
 |-------------------------------------------5------------------5-----------| 
 |--------------------------------------------------------------------------| 
 |--------------------------------------------------------------------------| 


 After 2 repeats harmony: 


 |----------------------------------------------------------------------------| 
 |-----15~---------15-----------15--------h-p----------------h-p--------------| 
 |-10~-----10---9~-----9----7~-------7---6-7-6---6-7-9-7-6--6-7-6---6-7-9-7-6-| 
 |---------------------------------------------9------------------9-----------| 
 |----------------------------------------------------------------------------| 
 |----------------------------------------------------------------------------| 


 Solo 1: 
 |------------------------------------------------------------------------------------------| 
 |------------------------------------------------------------------------------------------| 
 |-----------------p----------------------------------------------p-------------------------| 
 |-------p--------4-0--8--------p----------------------p---------4-0--8-------p-----5-7-8-5-| 
 |-0----5-0-----p------6--0----5-0-----p---p--1--0----5-0------p------6-0----5-0----3-5-6-3-| 
 |-0-00-----00-1-0--------0-00-----00-1-0-4-0-1--0-00-----00-1-0--------0-00-----00---------| 



 Solo 2: 

 |------------------------------|----------------------------------------------------------------| 
 |------------------------------|----------------------------------------------------------------| 
 |------------------------------|----------------------------------------------------------------| 
 |--7----12------10------8------|----------------------------------------------------------------| 
 |--5----10------8-------6------|-555555555555-1010101010101010-88888888888888888-66666666666666-| 
 |------------------------------|----------------------------------------------------------------| 





 Post Solo Harmony Section: 

 Rhythm: 

 |--------------------------------------------| 
 |--------------------------------------------| 
 |--------------------------------------------| 
 |-7----3----2----7----------3----2-----7-----| 
 |-5----1----0----5-----5----1----0-----5-----| 
 |----------------------5---------------------| 


 Lead: 
  Guitar 1: 
 |-----------------------------------------| 
 |-10-8----------8-------------------------| 
 |------10--9-10-------9------------9-10---| 
 |------------------11----12-----12--------| 
 |-----------------------------------------| 
 |-----------------------------------------| 


  Guitar 2: 
 |-----------------------------------------| 
 |-15-13------------13---------------------| 
 |-------14---12-14----9-12-10----10-12-14-| 
 |-----------------------------------------| 
 |-----------------------------------------| 
 |-----------------------------------------| 



 Verse 
 Bridge 
 Chorus 
 Outro 

Compartilhe esta música: novo

QR Code
Copiar