Plague Of Conscience

Savage Messiah

Tom: C#
#----------------------------------PLEASE NOTE---------------------------------# 
#This file is the author's own work and represents their interpretation of the # 
#song. You may only use this file for private study, scholarship, or research. # 
#------------------------------------------------------------------------------## 
                          Plague of Conscience 
                           By Savage Messiah 

       From the album Plague of Conscience (c) Earache records 2012 
  
www.earacherecords.com 
www.savagemessiah.net 
www.facebook.com/savagemessiahmetal 
www.twitter.com/savagemessiah  
www.youtube.com/savagemessiahmetal 



Notation Legend.-                        
       % = repeat last bar 
       / = slide up 
       \ = slide down 
       . = palm mute  
       p = pull off 
       h = hammer on 
       /\/\/\ = vibrato (it's up to you if you want to use the bar or not) 
       b«   = bend half step or equivalent 
       pb«  = pre-bend  
       br«  = bend and release 
       pbr« = pre-bend and release 

Tuning: C#, G#, c#, F#, A#, D#   

     Fast Rock = 195 
    
     Intro: 
  Gtr. 1  w/dist. 
                                                             1.     2. 
|-----------------------------------------------------------|------|--------| 
|-----------------------------------------------------------|------|--------| 
|-----------------------------------------------------------|------|--------| 
|--------h---p-----------------------------h---p------------|------|--------| 
|-0-----3-5-3-0---6---3-5---5/6-----0-----3-5-3-0---6---3-5-|---6--|------6-| 
|-0-000---------0---0-----0-5/6--00-0-000---------0---0-----|-0-6--|-0-66-6-| 


  Gtr. 2 Plays lots of dive bombs leading into Intro Solo 


   Verse: 
                                                          1.                 2. 
 |-------------------------------------------------------|------------------|--------------------| 
 |-------------------------------------------------------|------------------|--------------------| 
 |-------------------------------------------------------|------------------|--------------------| 
 |------h---p--4-----7-----h---p---8----7-----h---p--4---|---4-3------------|--------------------| 
 |-0---3-5-3-0---6---5----3-5-3-0--6----5----3-5-3-0---6-|---6-5---3--6-5-3-|---6---5---3--6-5-3-| 
 |-0-0-------------0---00------------00---00-------------|-0--0--0-3--6-5-3-|-0-6-0-5-0-3--6-5-3-| 


   Bridge: 
                                  1.                         2. 
 |-------------------------------|--------------------------|--------------| 
 |-------------------------------|--------------------------|--------------| 
 |-------------------------------|--------------------------|--------------| 
 |--------------3----------------|--------------------------|-3--5--7--8---| 
 |---3--------3-----5------3-5-6-|---3--1-1-------3--0----0-|-5--7--8--10--| 
 |-0--0-1-0-1-----0--0-1-0-------|-0--0--0--3-1--0-0-0-00-0-|--------------| 



   Chorus Riff: 

 |--------------------------------------------| 
 |--------------------------------------------| 
 |--------------------------------------------| 
 |--------------------------------------------| 
 |-0-----5-8-7----7-10-8----8-10-13---12--10--| 
 |-0-----5-8-7----7-10-8----8-10-13---12--10--| 





  Middle 8 Riff: 
                 1.           2. 
 |--------------|------------|------------| 
 |--------------|------------|------------| 
 |--------------|------------|------------| 
 |----------4---|-8---8----8-|-8---8----7-| 
 |------3-3--3--|-6---5----6-|-6---5----5-| 
 |-000---1----1-|--00---00---|--00---00---| 


 Arpeggio Section: 

 |--------------------------------------------------------------------| 
 |--------------------------------------------------------------------| 
 |--------------------------------------------------------------------| 
 |--------------------------------------------------------------------| 
 |-----------------5-555-5-555-555---1-111-1-111-111--4-444-4-444-444-| 
 |-0-000-0-000-000----------------------------------------------------| 


 Solo 1: 

 |-----------------------------------------------------------------------------------| 
 |-----------------------------------------------------------------------------------| 
 |-----------------------------------------------------------------------------------| 
 |------------------------------------------7--5--7--7--7/8-7-5----------------------| 
 |-5--3--5--5--5/6-5-3--5--3--5--5--5/6-5-3--00-00-00-00---------5--3--5--5--5/6-5-3-| 
 |--00-00-00-00----------00-00-00-00------------------------------00-00-00-00--------| 




  Middle 8 Riff (reprise): 
                 1.           2. 
 |--------------|------------|------------| 
 |--------------|------------|------------| 
 |--------------|------------|------------| 
 |----------4---|-8---8----8-|-8---8----7-| 
 |------3-3--3--|-6---5----6-|-6---5----5-| 
 |-000---1----1-|--00---00---|--00---00---| 


 End of solo section riff: 

 |---------------------------------------------------------| 
 |---------------------------------------------------------| 
 |---------------------------------------------------------| 
 |---------------------------------------------------------| 
 |-6----6----6-6--3----3----3-3-5--------------------------| 
 |-6-66-6-66-6-6--3-33-3-33-3-3-5-5-5-5-5-5-5-5-5555555555-| 

Compartilhe esta música: novo

QR Code
Copiar