Enemy Image Dehumanization

Savage Messiah

Tom: D#
Tuning: D#, G#, C#, F#, A#, D#   


   Fast Rock = 220bpm 

 Intro: 

 |--------------------------------------------| 
 |--------------------------------------------| 
 |--------------------------------------------| 
 |-6--------------------------6-------------8-| 
 |-4----8----7---2------------4----8----7---6-| 
 |---00-6-00-5-0-0--------------00-6-00-5-0-6-| 


 |-----| 
 |-----| 
 |-----| 
 |-8---| 
 |-6-8-| 
 |-6-6-| 

  

 Main Riff: 

 |--------------------------------------------------------------------| 
 |--------------------------------------------------------------------| 
 |---------10\9------------------------------10\9---------------------| 
 |--------------------------------------------------------------------| 
 |---------8-\7---------5---6\5--------------8-\7-------5/6-------8\7-| 
 |-0-000-0------0-000-0-3-0-4\3--0-000-000-0------0-000-3/4-0-000-6\5-| 


 Verse Riff: 

 |---------------------------------------------------------------| 
 |---------------------------------------------------------------| 
 |---------------------------------------------------------------| 
 |-----------------------------------------------6\4-------------| 
 |-------------------------8---5-----------------4\3---8\7---5/7-| 
 |-400-000-100-000-400-000-6-0-3-400-000-100-000-----0-6\5-0-3/5-| 


 Bridge: 

 |----------------------------------------------------| 
 |----------------------------------------------------| 
 |----------------------------------------------------| 
 |----------------------h--------------------------h--| 
 |-5----8----7----8----5-7----5----8----7----8----5-7-| 
 |-6-66-6-66-6-66-6-66-6---66-6-66-6-66-6-66-6-66-6---| 


 Chorus: 

 |------------------------| 
 |------------------------| 
 |------------------------| 
 |-----5---7------10--9---| 
 |-2---3---5---8--8---7---| 
 |-0---3---5---6----------| 


 Middle Section: 

 |-----------------------------------------------------------------------| 
 |-----------------------------------------------------------------------| 
 |---------------------------------------------------------------7\6-----| 
 |---------h-p-p---------h--------------------h-p-p---------h----5\4-8\7-| 
 |----7---7-8-7-0---5---5-7--------------7---7-8-7-0---5---5-7-------6\5-| 
 |-00---0---------0---0-----0-000-000-00---0---------0---0-----0---------| 

 |------------------------| 
 |------------------------| 
 |----7\6-----------------| 
 |----5\4-8\7--6--6-------| 
 |--------6\5--4--4-------| 
 |-00---------------------| 



 Middle Riff and Guitar Solo 1 Riff: 

 |----------------------------------------------------------| 
 |----------------------------------------------------------| 
 |----------------------------------------------------------| 
 |-7\6--------7-7\6-------------7\6---------7-7\6-----------| 
 |-8\7--------8-8\7-------------8\7---------8-8\7----8\7----| 
 |----0-000-0-------0-000-000-0-----0-000-0-------00-6\5-00-| 

 |----------------------------------------------------------| 
 |----------------------------------------------------------| 
 |----------------------------------------------------------| 
 |-7\6--------7-7\6-------------7\6---------7-7\6-----------| 
 |-8\7--------8-8\7-------------8\7---------8-8\7----8\7----| 
 |----0-000-0-------0-000-000-0-----0-000-0-------00-6\5-00-| 

 |----------------------------------------------------------| 
 |----------------------------------------------------------| 
 |----------------------------------------------------------| 
 |-7\6--------7-7\6-------------7\6---------7-7\6-----------| 
 |-8\7--------8-8\7-------------8\7---------8-8\7----8\7----| 
 |----0-000-0-------0-000-000-0-----0-000-0-------00-6\5-00-| 

 |----------------------------------------------------------| 
 |----------------------------------------------------------| 
 |----------------------------------------------------------| 
 |-7\6--------7-7\6-------------7\6---------7-7\6-----------| 
 |-8\7--------8-8\7-------------8\7---------8-8\7----8\7----| 
 |----0-000-0-------0-000-000-0-----0-000-0-------00-6\5-00-| 


 Breakout Riff: 

 |------------------------------------------------------------------------| 
 |------------------------------------------------------------------------| 
 |------------------------------------------------------------------------| 
 |-9---------------------9---7---9-10---------------------12---10---10-9--| 
 |---777-777-777-777-777---7---7------888-888-888-888-888----8----8-------| 
 |------------------------------------------------------------------------| 

  
 |---------------------------------------------| 
 |---------------------------------------------| 
 |---------------------------------------------| 
 |-9--7-9-10-9----------9--7-9-10-9------------| 
 |-7--5-7-8--7----------7--5-7-8--7--8---------| 
 |-------------1-0-1-0---------------6---------| 


 Solo 2: 

  |--------------------------------------------------------------------| 
 |--------------------------------------------------------------------| 
 |---------10\9------------------------------10\9---------------------| 
 |--------------------------------------------------------------------| 
 |---------8-\7---------5---6\5--------------8-\7-------5/6-------8\7-| 
 |-0-000-0------0-000-0-3-0-4\3--0-000-000-0------0-000-3/4-0-000-6\5-| 


 Verse Riff: 

 |---------------------------------------------------------------| 
 |---------------------------------------------------------------| 
 |---------------------------------------------------------------| 
 |-----------------------------------------------6\4-------------| 
 |-------------------------8---5-----------------4\3---8\7---5/7-| 
 |-400-000-100-000-400-000-6-0-3-400-000-100-000-----0-6\5-0-3/5-| 


 Bridge: 

 |----------------------------------------------------| 
 |----------------------------------------------------| 
 |----------------------------------------------------| 
 |----------------------h--------------------------h--| 
 |-5----8----7----8----5-7----5----8----7----8----5-7-| 
 |-6-66-6-66-6-66-6-66-6---66-6-66-6-66-6-66-6-66-6---| 


 Chorus: 

 |------------------------| 
 |------------------------| 
 |------------------------| 
 |-----5---7------10--9---| 
 |-2---3---5---8--8---7---| 
 |-0---3---5---6----------| 


 Middle Section: 

  Guitar 1: 
 |-----------------------------------------------------------------------| 
 |-----------------------------------------------------------------------| 
 |---------------------------------------------------------------7\6-----| 
 |---------h-p-p---------h--------------------h-p-p---------h----5\4-8\7-| 
 |----7---7-8-7-0---5---5-7--------------7---7-8-7-0---5---5-7-------6\5-| 
 |-00---0---------0---0-----0-000-000-00---0---------0---0-----0---------| 

  
  Guitar 2: 
 |-------------| 
 |-------------| 
 |-------------| (modulate over the top of guitar 1 part) 
 |----5--4--3--| 
 |-2--3--2--1--| 
 |-0--3--2--1--| 





 Outro: 

 |------------------------| 
 |------------------------| 
 |----7\6-----------------| 
 |----5\4-8\7--6--6-------| 
 |--------6\5--4--4-------| 
 |-00---------------------| 

 |-------| 
 |-------| 
 |-------| 
 |-7--9--| 
 |-5--7--| 
 |-------| 

Compartilhe esta música: novo

QR Code
Copiar