Tom: Gm
Hey guys this is a tab for the song Campfire by Satellite stories. Standard tuning. 

~There's a little vocal melody part at the beginning before the guitar starts I'll also 
tab that out just invade anyone wants it.~ 

E|----------------------------------------------------------------| 
B|----------------------------------------------------------------| 
G|------------12--------------------------------------------------| 
D|---12--15------12----------15--12--------15--12-----------------| 
A|------------------------15-------------15-----------------------| 
E|----------------------------------------------------------------| 

Intro: 
The intro is Gm, Eb, Bb 
And you just pick the g and b strings from each chord, so the 2nd and 3rd strings. 

E|---10----x-----x-----| 
B|---11----8----15-----| 
G|---12----8----15-----| 
D|---12----8----15-----| 
A|---10----6----13-----| 
E|----x-----x-----x----| 

Then for the 2nd part of the intro he uses the same exact chords with an added fmajor 
chord and he plays them in the same sequence except he just strums them full in a straight 
up down rhythm. 

E|---10----x-----x------x-----| 
B|---11----8----15----10------| 
G|---12----8----15----10------| 
D|---12----8----15----10------| 
A|---10----6----13-----8------| 
E|----x-----x-----x------x----| 

 Then for the verses it's mostly the bass playing but if you want to play chords in  
there then these 
are the chords. This is the part where it goes ' waited all summer to get to you' 



E|----x----3----1----3----6-| 
B|----8----3----1----3----6-| 
G|----8----3----2----3----7-| 
D|----8----5----3----5----8-| 
A|----6----5----3----5----8-| 
E|----x----3----1----3----6-| 

Also during those verses the second guitar embellishes the baseline/or chords with 
a Gm triad, it's the little sparkle that you hear. He plays it twice at the third fret  
and then 
another two times an octave higher at the 15th. You'll have to listen to when he plays them 
so that you can space them out appropriately. 

E|---3---3----15---15-----| 
B|---3---3----15---15-----| 
G|---3---3----15---15-----| 
D|---x---x------x----x----| 
A|---x---x------x----x----| 
E|---x---x------x----x----| 

Then it goes into the Chorus which is the same chord progression as that bit in the intro 
Gm,Eb, Bb, F. 

E|---10----x-----x------x-----| 
B|---11----8----15----10------| 
G|---12----8----15----10------| 
D|---12----8----15----10------| 
A|---10----6----13-----8------| 
E|----x-----x-----x------x----| 

Then back into the verses 

E|----x----3----1----3----6-| 
B|----8----3----1----3----6-| 
G|----8----3----2----3----7-| 
D|----8----5----3----5----8-| 
A|----6----5----3----5----8-| 
E|----x----3----1----3----6-| 

Then back into the Chorus 

E|---10----x-----x------x-----| 
B|---11----8----15----10------| 
G|---12----8----15----10------| 
D|---12----8----15----10------| 
A|---10----6----13-----8------| 
E|----x-----x-----x------x----| 

Then the bridge. 

E|----x---5---3----1----| 
B|----8---6---3----1----| 
G|----8---7---3----2----| 
D|----8---7---5----3----| 
A|----6---5---5----3----| 
E|----x---x---3----1----| 

Then back into the Chorus 

E|---10----x-----x------x-----| 
B|---11----8----15----10------| 
G|---12----8----15----10------| 
D|---12----8----15----10------| 
A|---10----6----13-----8------| 
E|----x-----x-----x------x----| 

Then it ends on a Gm that he is just strumming downwards in the rhythm you hear. 

E|---10-----| 
B|---11-----| 
G|---12-----| 
D|---12-----| 
A|---10-----| 
E|----x-----| 

Compartilhe esta música: novo

QR Code
Copiar