Sailing Solo

Rod Stewart

Tabbed by:Magge 
Email:* 

Tuning:Standard 

e|--4-4--4--2-2------------------------2-4-4-4-2-2---------------| 
B|---------------4--4-2-2-2-0-2-0-4--4--------------4-4-2-2------| 
G|---------------------------------------------------------------| 
D|---------------------------------------------------------------| 
A|---------------------------------------------------------------| 
E|---------------------------------------------------------------| 

e|-----0--4------------------------------------------------------| 
B|-2-4 ----------------------------------------------------------| 
G|---------------------------------------------------------------| 
D|---------------------------------------------------------------| 
A|---------------------------------------------------------------| 
E|---------------------------------------------------------------| 

I didn't work out the intro to the solo, it is very diffcuilt... 
but, try this! mail me for questions! 

Compartilhe esta música: novo

QR Code
Copiar