Rhythm Of My Heart Intro

Rod Stewart

This is a kick-arse song, soz tha its only the intro but there isnt really  
uch guitar in it, im jus tabbin the accordian intro, enjoy. 

~ vibrate 
/ slide 

e-13--16--18--16--13~---13---------18--16--13-------------13--16--18--16--18 
b--------------------16----16--14~------------16--14--16-------------------- 
g--------------------------------------------------------------------------- 
d--------------------------------------------------------------------------- 
a--------------------------------------------------------------------------- 
e--------------------------------------------------------------------------- 


e-13--16--14--13-------------------------13--16--18--16--13----------------- 
b-----------------16--14/-11~--11--13--16--------------------16--14~-------- 
g----------------------------------------------------------------------x-6-- 
d----------------------------------------------------------------------x-6-- 
a----------------------------------------------------------------------x-4-- 
e--------------------------------------------------------------------------- 
Thats it, pretty basic shouldnt have troubles with it, if you do then you 
shouldnt be playin guitar, if you like it or if its wrong email me at 
* cheers. 

Compartilhe esta música: novo

QR Code
Copiar