Ovelha Negra (solo)

Rita Lee

 
Essa á tablatura da letra da música.... Valeu. 
 
 
e|--------------------------------------------------------------------------------------------| 
B|---10-8-7-8---7-------10---------10-8-7-8---7-------10--------------------------------------| 
G|-7--------------9-7-9----------7--------------9-7-9-----------------------------------------| 
D|--------------------------------------------------------------------------------------------| 
A|--------------------------------------------------------------------------------------------| 
E|--------------------------------------------------------------------------------------------| 
 
e|--------------------------------------------------------------------------------------------| 
B|--10-10-10-10-12-10--8--7------7-8~10----------10-------------------------------------------| 
G|--------------------------6--8--------9---11-9----------------------------------------------| 
D|--------------------------------------------------------------------------------------------| 
A|--------------------------------------------------------------------------------------------| 
E|--------------------------------------------------------------------------------------------| 
 
e|-------------------------------------------------------------5-5-5-5-5-5-5-7----------------| 
B|-8-8-8-7-----11-11-11-11----8-10-10-8----8-8-8-8-8-8-10-8--------------------11-11-9-7------| 
G|---------7---------------10-----------10------------------9---------------------------------| 
D|--------------------------------------------------------------------------------------------| 
A|--------------------------------------------------------------------------------------------| 
E|--------------------------------------------------------------------------------------------| 
 
 
_______________________________________________________ 
Contribuição: Marcu Vinicius Vilela BAlbi([email protected]) 

Compartilhe esta música: novo

QR Code
Copiar