Dead In A Grave

Rev Theory

Tom: D
   INTRO: 
Guitar 1 (effect) 
e-------------------------------------------------------------------| 
B-------------------------------------------------------------------| 
G-5h7-----5---5h7-----5---5h7p5---5h7-----5---5h7-----5---10-10-9-5-| 
D-----0-0---0-----0-0---0-------0-----0-0---0-----0-0---0-----------| x5 
A-------------------------------------------------------------------| 
D-------------------------------------------------------------------| 

Guitar 2 
e-------------------------------------------------------------------------| 
B-------------------------------------------------------------------------| 
G-------------------------------------------------------------------------| 
D-0-------------------------------8-----------3-----------10--------------| 
A-0-------------------------------8-----------3-----------10--------------| 
D-0-------------------------------8-----------3-----------10--------------| 
                                                                       x2 
e-------------------------------------------------------------------------| 
B-------------------------------------------------------------------------| 
G-------------------------------------------------------------------------| 
D-0-------------------------------8-----------3-----------5---0-0---------| 
A-0-------------------------------8-----------3-----------5---0-0---------| 
D-0-------------------------------8-----------3-----------5---0-0---------| 
                                                              . . 
VeRSe 1: 
Guitar 1 
e-------------------------------------------------------------------| 
B-------------------------------------------------------------------| 
G-------------------------------------------------------------------| 
D-0--------------------------5---3--------------------------2---3---| 
A-0--3-5---3-5---3-5---3-5---5---3--3-5---3-5---3-5---3-5---2---3---| 
D-0------0-----0-----0-----0-5---3------0-----0-----0-----0-2---3---| 

e-------------------------------------------------------------------| 
B-------------------------------------------------------------------| 
G-------------------------------------------------------------------| 
D----------------------------5---3------------------3-----3-----3---| 
A----3-5---3-5---3-5---3-5---5---3--3-5---3-5---3-5-3-----3-----3---| 
D--------0-----0-----0-----0-5---3------0-----0-----3-----3-----3---| 

Guitar 1 
e-------------------------------------------------------------------| 
B-------------------------------------------------------------------| 
G-------------------------------------------------------------------| 
D-0--------------------------5---3--------------------------2---3---| 
A-0--3-5---3-5---3-5---3-5---5---3--3-5---3-5---3-5---3-5---2---3---| 
D-0------0-----0-----0-----0-5---3------0-----0-----0-----0-2---3---| 

Guitar 2 
e------------------------------------| 
B------------------------------------| 
G----5-7---5-7---5-7---5-7-10-10-9-7-| 
D-0------0-----0-----0---------------|  x3 
A------------------------------------| 
D------------------------------------| 

e-------------------------------------------------------------------| 
B-------------------------------------------------------------------| 
G-------------------------------------------------------------------| 
D----------------------------5---3------------------------------3---| 
A----3-5---3-5---3-5---3-5---5---3--3-5---3-5---3-5---3-5---3-3-1---| 
D--------0-----0-----0-----0-5---3------0-----0-----0-----0---------| 

e------------------------------------| 
B------------------------------------| 
G---5-7---5-7---5-7---5-7-7/---------| 
D-0-----0-----0-----0----------------| 
A------------------------------------| 
D------------------------------------| 

Guitar 1 
e-------------------------------------------------------------------| 
B-------------------------------------------------------------------| 
G-------------------------------------------------------------------| 
D-3-3-3-3-3-3-3-3-3-3-3-3-3-3-2---2-2-2-2-2-2-2---------------------| 
A-1-1-1-1-1-1-1-1-1-1-1-1-1-1-0---0-0-0-0-0-0-0---------------------| 
D-------------------------------------------------------------------| 

CHORUS: 
Guitar 1 
e-------------------------------------------------------------------| 
B-------------------------------------------------------------------| 
G-------------------------------------------------------------------| 
D-0-0-0----0----0-0----0----0----0-3-3-3----3----3-3-3-3-3-5-5-5-7--| 
A-0-0-0----0----0-0----0----0----0-3-3-3----3----3-3-3-3-3-5-5-5-5--| 
D-0-0-0----0----0-0----0----0----0-3-3-3----3----3-3-3-3-3-5-5-5-0--| 
      s    s           s    s          s    s 

e-------------------------------------------------------------------| 
B-------------------------------------------------------------------| 
G-------------------------------------------------------------------| 
D---7-7----7----7-7----7----7----7-3-3-3----3----3-3-3-3-3-5-5-5-5--| 
A---5-5----5----5-5----5----5----5-3-3-3----3----3-3-3-3-3-5-5-5-5--| 
D---0-0----0----0-0----0----0----0-3-3-3----3----3-3-3-3-3-5-5-5-5--| 
      s    s           s    s          s    s 

LeAD: 
Guitar 1 
e--------17-------17-----------15-------15-| 
B-13--13----13-13----13-12--12----12-12----| 
G------------------------------------------| 
D------------------------------------------| 
A------------------------------------------| 
D------------------------------------------| 

e-----15---------------------------------------------------------| 
B-13b---(13)r13-13p10h13-10---------13---------------------------| 
G---------------------------12--12b---(12)r12-12p10h12-10--------| 
D---------------------------------------------------------12-----| 
A----------------------------------------------------------------| 
D----------------------------------------------------------------| 

Guitar 2 
e-------------------------------------------------------------------| 
B-------------------------------------------------------------------| 
G-------------------------------------------------------------------| 
D-0--------------------------5---3--------------------------2---3---| 
A-0--3-5---3-5---3-5---3-5---5---3--3-5---3-5---3-5---3-5---2---3---| 
D-0------0-----0-----0-----0-5---3------0-----0-----0-----0-2---3---| 

VeRSe 2: 
Guitar 1 
e-------------------------------------------------------------------| 
B-------------------------------------------------------------------| 
G-------------------------------------------------------------------| 
D----0-0---0-0---0-0---0-0---5---3--0-0---0-0---0-0---0-0---2---3---| 
A----0-0---0-0---0-0---0-0---5---3--0-0---0-0---0-0---0-0---2---3---| 
D----0-0---0-0---0-0---0-0---5---3--0-0---0-0---0-0---0-0---2---3---| 
   PM. .   . .   . .   . .          . .   . .   . .   . . 

e-------------------------------------------------------------------| 
B-------------------------------------------------------------------| 
G-------------------------------------------------------------------| 
D----0-0---0-0---0-0---0-0---5---3--0-0---0-0---0-0-3-----3-----3---| 
A----0-0---0-0---0-0---0-0---5---3--0-0---0-0---0-0-3-----3-----3---| 
D----0-0---0-0---0-0---0-0---5---3--0-0---0-0---0-0-3-----3-----3---| 
   PM. .   . .   . .   . .          . .   . .   . . 

Guitar 1 
e-------------------------------------------------------------------| 
B-------------------------------------------------------------------| 
G-------------------------------------------------------------------| 
D-0--------------------------5---3--------------------------2---3---| 
A-0--------------------------5---3--------------------------2---3---| 
D-0--0-0-0-000-0-0-000-0-0-0-5---3--0-0-0-000-0-0-000-0-0-0-2---3---| 
   PM. . . ... . . ... . . .        . . . ... . . ... . . . 

Guitar 2 
e------------------------------------| 
B------------------------------------| 
G----5-7---5-7---5-7---5-7-10-10-9-7-| 
D-0------0-----0-----0---------------|  x3 
A------------------------------------| 
D------------------------------------| 

Guitar 1 
e-------------------------------------------------------------------| 
B----------------------------------------------------------PICK-----| 
G---------------------------------------------------------SCRAPe----| 
D----------------------------5---3------------------------///////-3-| 
A----------------------------5---3------------------------///////-1-| 
D----0-0-0-000-0-0-000-0-0-0-5---3--0-0-0-000-0-0-000-0-0-///////---| 
   PM. . . ... . . ... . . .        . . . ... . . ... . . 

Guitar 2 
e------------------------------------| 
B------------------------------------| 
G---5-7---5-7---5-7---5-7-7/---------| 
D-0-----0-----0-----0----------------| 
A------------------------------------| 
D------------------------------------| 

Guitar 1 
e-------------------------------------------------------------------| 
B-------------------------------------------------------------------| 
G-------------------------------------------------------------------| 
D-3-3-3-3-3-3-3-3-3-3-3-3-3-3-2---2-2-2-2-2-2-2-----5-5----5-5----5-| 
A-1-1-1-1-1-1-1-1-1-1-1-1-1-1-0---0-0-0-0-0-0-0-----3-3----3-3----3-| 
D-------------------------------------------------------------------| 

CHORUS: 
Guitar 1 
e-------------------------------------------------------------------| 
B-------------------------------------------------------------------| 
G-------------------------------------------------------------------| 
D-0-0-0----0----0-0----0----0----0-3-3-3----3----3-3-3-3-3-5-5-5-7--| 
A-0-0-0----0----0-0----0----0----0-3-3-3----3----3-3-3-3-3-5-5-5-5--| 
D-0-0-0----0----0-0----0----0----0-3-3-3----3----3-3-3-3-3-5-5-5-0--| 
      s    s           s    s          s    s 

e-------------------------------------------------------------------| 
B-------------------------------------------------------------------| 
G-------------------------------------------------------------------| 
D---7-7----7----7-7----7----7----7-3-3-3----3----3-3-3-3-3-5-5-5-5--| 
A---5-5----5----5-5----5----5----5-3-3-3----3----3-3-3-3-3-5-5-5-5--| 
D---0-0----0----0-0----0----0----0-3-3-3----3----3-3-3-3-3-5-5-5-5--| 
      s    s           s    s          s    s 

e-------------------------------------------------------------------| 
B-------------------------------------------------------------------| 
G-------------------------------------------------------------------| 
D-0-0-0----0----0-0----0----0----0-3-3-3----3----3-3-3-3-3-5-5-5-7--| 
A-0-0-0----0----0-0----0----0----0-3-3-3----3----3-3-3-3-3-5-5-5-5--| 
D-0-0-0----0----0-0----0----0----0-3-3-3----3----3-3-3-3-3-5-5-5-0--| 
      s    s           s    s          s    s 

e-------------------------------------------------------------------| 
B-------------------------------------------------------------------| 
G-------------------------------------------------------------------| 
D---7-7----7----7-7----7----7----7-3-3-3----3----3-3-3-3-3-5-5-5-5--| 
A---5-5----5----5-5----5----5----5-3-3-3----3----3-3-3-3-3-5-5-5-5--| 
D---0-0----0----0-0----0----0----0-3-3-3----3----3-3-3-3-3-5-5-5-5--| 
      s    s           s    s          s    s 

e---------------------------------| 
B---------------------------------| 
G---------------------------------| 
D-3-3-3-3-3-3-3-3-3-3-3-5-5-5-0---| 
A-3-3-3-3-3-3-3-3-3-3-3-5-5-5-0---| 
D-3-3-3-3-3-3-3-3-3-3-3-5-5-5-0---| 
  PM. . . . . . . . . . 

HeAVY RIFF: 
Guitar 1 
e---------------------------------------------------------------| 
B---------------------------------------------------------------| 
G---------------------------------------------------------------| 
D---0-0-0-0-0-0-0-0-0-0-0-0-0-0-0-0-0-0-0-0-0-0-0-0-0-0-0-0-0-0-| 
A---0-0-0-0-0-0-0-0-0-0-0-0-0-0-0-0-0-0-0-0-0-0-0-0-0-0-0-0-0-0-| 
D---0-0-0-0-0-0-0-0-0-0-0-0-0-0-0-0-0-0-0-0-0-0-0-0-0-0-0-0-0-0-| 
  PM. . . . . . . . . . .   .   . . . . . . . . . . . . .   . 

e---------------------------------------------------------------| 
B---------------------------------------------------------------| 
G---------------------------------------------------------------| 
D-0-0-0-0-0-0-0-0-0-0-0-0-0-0-0-0-0-0-0-0-0-0-0-0-0-0-0-0-0-0-0-| 
A-0-0-0-0-0-0-0-0-0-0-0-0-0-0-0-0-0-0-0-0-0-0-0-0-0-0-0-0-0-0-0-| 
D-0-0-0-0-0-0-0-0-0-0-0-0-0-0-0-0-0-0-0-0-0-0-0-0-0-0-0-0-0-0-0-| 
PM. . . . . . . . . . . . .   .   . . . . . . . . . . . . . . . 

SOLO: 
Guitar 1 
e--------17-------17-----------15-------15--| 
B-13--13----13-13----13-12--12----12-12-----| 
G-------------------------------------------| 
D-------------------------------------------| 
A-------------------------------------------| 
D-------------------------------------------| 

e-----------------------------------------------------------| 
B-----13---------------------------13-----------------------| 
G-12b---(12)r12-12p10h12-10-12-12b---(12)r12-12p10h12-10----| 
D--------------------------------------------------------12-| 
A-----------------------------------------------------------| 
D-----------------------------------------------------------| 

e--------17-------17-----------15-------15--| 
B-13--13----13-13----13-12--12----12-12-----| 
G-------------------------------------------| 
D-------------------------------------------| 
A-------------------------------------------| 
D-------------------------------------------| 

e------------------10--10----------15~------| 
B-10--10-10/13--13--------13p10-------------| 
G-------------------------------12----------| 
D-------------------------------------------| 
A-------------------------------------------| 
D-------------------------------------------| 

e-15b---(17)-(17)r15-13-15-13p10~-----------| 
B-------------------------------------------| 
G-------------------------------------------| 
D-------------------------------------------| 
A-------------------------------------------| 
D-------------------------------------------| 

e-18b(19)-18--17--15--13--12--13-13h15p13/12-12h13p12/10-10h12p10/8-| 
B-------------------------------------------------------------------| 
G-------------------------------------------------------------------| 
D-------------------------------------------------------------------| 
A-------------------------------------------------------------------| 
D-------------------------------------------------------------------| 

Guitar 2 
e-------------------------------------------------------------------| 
B-------------------------------------------------------------------| 
G-------------------------------------------------------------------| 
D-0--------------------------5---3--------------------------2---3---| 
A-0--3-5---3-5---3-5---3-5---5---3--3-5---3-5---3-5---3-5---2---3---| 
D-0------0-----0-----0-----0-5---3------0-----0-----0-----0-2---3---| 

e-------------------------------------------------------------------| 
B-------------------------------------------------------------------| 
G-------------------------------------------------------------------| 
D----------------------------5---3------------------------------3---| 
A----3-5---3-5---3-5---3-5---5---3--3-5---3-5---3-5---3-5---3-3-1---| 
D--------0-----0-----0-----0-5---3------0-----0-----0-----0---------| 

e-------------------------------------------------------------------| 
B-------------------------------------------------------------------| 
G-------------------------------------------------------------------| 
D-3-3-3-3-3-3-3-3-3-3-3-3-3-3-2---2-2-2-2-2-2-2-----5-5----5-5----5-| 
A-1-1-1-1-1-1-1-1-1-1-1-1-1-1-0---0-0-0-0-0-0-0-----3-3----3-3----3-| 
D-------------------------------------------------------------------| 

INTRO RIFF: 
Guitar 1 (effect) 
e-------------------------------------------------------------------| 
B-------------------------------------------------------------------| 
G-5h7-----5---5h7-----5---5h7p5---5h7-----5---5h7-----5---10-10-9-5-| 
D-----0-0---0-----0-0---0-------0-----0-0---0-----0-0---0-----------| x2 
A-------------------------------------------------------------------| 
D-------------------------------------------------------------------| 

Guitar 2 
e-------------------------------------------------------------------| 
B-------------------------------------------------------------------| 
G-------------------------------------------------------------------| 
D-0-------------------------------8-----------3-----------10--------| 
A-0-------------------------------8-----------3-----------10--------| 
D-0-------------------------------8-----------3-----------10--------| 

e-------------------------------------------------------------------| 
B-------------------------------------------------------------------| 
G-------------------------------------------------------------------| 
D-0-------------------------------8-----------3-----------5---0-0---| 
A-0-------------------------------8-----------3-----------5---0-0---| 
D-0-------------------------------8-----------3-----------5---0-0---| 
                                                              . . 

QUIeT RIFF: 
Guitar 1 
e-------------------------------------------------------------------| 
B-------------------------------------------------------------------| 
G-5-7-----5---5-7-----5---5-7-5---5-7-----5---5-7-----5---10-10-9-5-| 
D-----0-0---0-----0-0---0-------0-----0-0---0-----0-0---0-----------| 
A-------------------------------------------------------------------| 
D-------------------------------------------------------------------| 
PM. . . . . . . . . . . . . . . . . . . . . . . . . . . . . . . . . 

Guitar 2 
e-------------------------------------------------------------------| 
B-------------------------------------------------------------------| 
G-------------------------------------------------------------------| 
D-0-----------------------------------------------------------------| 
A-0-----------------------------------------------------------------| 
D-0-----------------------------------------------------------------| 

e-------------------------------------------------------------------| 
B-------------------------------------------------------------------| 
G-5-7-----5---5-7-----5---5-7-5-------------------------------------| 
D-----0-0---0-----0-0---0-------0-3-3-------------------------------| 
A---------------------------------1-1-------------------------------| 
D-------------------------------------------------------------------| 
PM. . . . . . . . . . . . . . . . 

MODIFIeD CHORUS: 
Guitar 1 
e-------------------------------------------------------------------| 
B-------------------------------------------------------------------| 
G-------------------------------------------------------------------| 
D-0-0-0---0-0-0---0-0-0---0-0-0---3-3-3---3-3-3---3-3-3-3-5-5-5-7---| 
A-0-0-0---0-0-0---0-0-0---0-0-0---3-3-3---3-3-3---3-3-3-3-5-5-5-5---| 
D-0-0-0---0-0-0---0-0-0---0-0-0---3-3-3---3-3-3---3-3-3-3-5-5-5-0---| 

e-------------------------------------------------------------------| 
B-------------------------------------------------------------------| 
G-------------------------------------------------------------------| 
D---7-7---7-7-7---7-7-7---7-7-7---3-3-3---3-3-3---3-3-3-3-3-5-5-5---| 
A---5-5---5-5-5---5-5-5---5-5-5---3-3-3---3-3-3---3-3-3-3-3-5-5-5---| 
D---0-0---0-0-0---0-0-0---0-0-0---3-3-3---3-3-3---3-3-3-3-3-5-5-5---| 

OLD CHORUS: 
Guitar 1 
e-------------------------------------------------------------------| 
B-------------------------------------------------------------------| 
G-------------------------------------------------------------------| 
D-0-0-0----0----0-0----0----0----0-3-3-3----3----3-3-3-3-3-5-5-5-7--| 
A-0-0-0----0----0-0----0----0----0-3-3-3----3----3-3-3-3-3-5-5-5-5--| 
D-0-0-0----0----0-0----0----0----0-3-3-3----3----3-3-3-3-3-5-5-5-0--| 
      s    s           s    s          s    s 

e-------------------------------------------------------------------| 
B-------------------------------------------------------------------| 
G-------------------------------------------------------------------| 
D---7-7----7----7-7----7----7----7-3-3-3----3----3-3-3-3-3-5-5-5-5--| 
A---5-5----5----5-5----5----5----5-3-3-3----3----3-3-3-3-3-5-5-5-5--| 
D---0-0----0----0-0----0----0----0-3-3-3----3----3-3-3-3-3-5-5-5-5--| 
      s    s           s    s          s    s 

Guitar 2 
e-------------------------------------------------------------------| 
B-------------------------------------------------------------------| 
G-5h7-----5---5h7-----5---5h7p5---5h7-----5---5h7-----5---10-10-9-5-| 
D-----0-0---0-----0-0---0-------0-----0-0---0-----0-0---0-----------|  x2 
A-------------------------------------------------------------------| 
D-------------------------------------------------------------------| 

Guitar 1 
e---------------------------------| 
B---------------------------------| 
G---------------------------------| 
D-3-3-3-3-3-3-3-3-3-3-3-5-5-5-0---| 
A-3-3-3-3-3-3-3-3-3-3-3-5-5-5-0---| 
D-3-3-3-3-3-3-3-3-3-3-3-5-5-5-0---| 
  PM. . . . . . . . . . 

Guitar 2 
e---------------------------------| 
B---------------------------------| 
G-5h7-----5---5h7-----5---10-10-9-| 
D-----0-0---0-----0-0---0---------| 
A---------------------------------| 
D---------------------------------| 

LeAD: 
Guitar 1 
e--------17-------17-----------15-------15--| 
B-13--13----13-13----13-12--12----12-12-----| 
G-------------------------------------------| 
D-------------------------------------------| 
A-------------------------------------------| 
D-------------------------------------------| 

e-----15---------------------------------------------------------| 
B-13b---(13)r13-13p10h13-10---------13---------------------------| 
G---------------------------12--12b---(12)r12-12p10h12-10--------| 
D---------------------------------------------------------12-----| 
A----------------------------------------------------------------| 
D----------------------------------------------------------------| 

e--------17-------17-----------15-------15--| 
B-13--13----13-13----13-12--12----12-12-----| 
G-------------------------------------------| 
D-------------------------------------------| 
A-------------------------------------------| 
D-------------------------------------------| 

e-10------12------15------17------20b(22)~~-| 
B-13b(15)-15b(17)-18b(20)-20b(22)-----------| 
G-------------------------------------------| 
D-------------------------------------------| 
A-------------------------------------------| 
D-------------------------------------------| 

Guitar 2 
e-------------------------------------------------------------------| 
B-------------------------------------------------------------------| 
G-------------------------------------------------------------------| 
D-0--------------------------5---3--------------------------2---3---| 
A-0--3-5---3-5---3-5---3-5---5---3--3-5---3-5---3-5---3-5---2---3---| 
D-0------0-----0-----0-----0-5---3------0-----0-----0-----0-2---3---| 

e-----------------------------------------------------------------------| 
B-----------------------------------------------------------------------| 
G-----------------------------------------------------------------------| 
D----------------------------5---3------------------3-----3-----3-----3-| 
A----3-5---3-5---3-5---3-5---5---3--3-5---3-5---3-5-3-----3-----3-----3-| 
D--------0-----0-----0-----0-5---3------0-----0-----3-----3-----3-----3-|  

Compartilhe esta música: novo

QR Code
Copiar