Plano Melhor

Renascer Praise

Tom: C
    Cm7            Eb/F             
ASSIM NA TERRA COMO NO CÉU  PONTE solo Guitar e INÍCIO            
 
|      Gm/E Ebm7(11) Dm7           Gm7 Cm7          Eb/F    Eb/Bb Bb  
e----------------------------5h6p5----------------10/11p10-8--------| 
B-------6--9--7--7h9p6-----6-------4/6p4-----8-11------------11-11v-| 
G----7-------------------7-----------------8------------------------| 
D-8--------------------8--------------------------------------------| 
A-------------------------------------------------------------------| 
E-------------------------------------------------------------------| 
    Cm7    Eb/F        
ASSIM NA TERRA COMO NO CÉU  (fim)           
 
e---------------------------------------------------------11b-10v--| 
B-----6-9-7-6--------13b-11v-----6-9-7-6-------/8-/10-/11----------| 
G---7---------7-7/8------------7---------7-7/8---------------------| 
D-8--------------------------8-------------------------------------|  
A------------------------------------------------------------------| 
E------------------------------------------------------------------| 

Compartilhe esta música: novo

QR Code
Copiar