In A Tree

Priscilla Ahn

Tom: C
Tuning: CAPO on the 6th Fret 

Introduction 

e|---------------------------0------------------------------0-------| 
B|-----1-------1-------1--------------1---------------1-------------| 
G|-----0-------0-------2--------------2---------0-----0-------------| 
D|-------------------------2----2-------------0-----------2----2----| 
A|-3-------2-------0--------------0-------0h2-----3-----------------|   (play 2x) 
E|------------------------------------------------------------------| 

e|-----------3---------------3---------------3---------------3------| 
B|-----0---------------0---------------0---------------0------------| 
G|-----0---------------0---------------0---------------0------------| 
D|---------0---0-----------0---0-----------0---0-----------0---0----| 
A|------------------------------------------------------------------| 
E|-3---------------3---------------3---------------3----------------| 

Verse 

e|-----------3---------------0---------------0---------------0------| 
B|-----0---------------0---------------4---------------4------------| 
G|-----0---------------0---------------4---------------4------------| 
D|---------0---0-----------0---0-----------4---4-----------4---4----| 
A|---------------------------------2---------------2----------------| 
E|-3---------------3------------------------------------------------| 

   Living in a tree,               Yeah that's where I'd like to be, 

e|-----------0---------------0---------------3---------------3------| 
B|-----1---------------1---------------0---------------0------------| 
G|-----0---------------0---------------0---------------0------------| 
D|---------2---2-----------2---2-----------0---0-----------0---0----| 
A|-3---------------3------------------------------------------------| 
E|---------------------------------3---------------3----------------| 

   When the world,                 falls down. 

(Repeat Verse) 

   No one can say nothing.         Which I guess means they'll say something 

   But I won't,    be around.                              I'll be... 

Chorus 

e|---------------------------3---------------3---------------3------| 
B|-----1-------0-------0---------------0---------------0------------| 
G|-----0-------0-------0---------------0---------------0------------| 
D|-------------------------0---0-----------0---0-----------0---0----| 
A|-3-------2--------------------------------------------------------| 
E|-----------------3---------------3---------------3----------------| 

  In my Tree. 

e|---------------------------3---------------3-----| 
B|-----1-------0-------0---------------0-----------| 
G|-----0-------0-------0---------------0-----------| 
D|-------------------------0---0-----------0---0---| 
A|-3-------2---------------------------------------| 
E|-----------------3---------------3---------------| 

   Living free,          as any child would, 

e|-----------0---------------2---------3-----3---------------3------| 
B|-----2---------------2---------------2---------------2------------| 
G|-----2---------------2---------------2---------------2------------| 
D|---------2---2-----------2---2-----------2---2-----------2---2----| 
A|-0---------------0---------------0---------------0----------------| 
E|------------------------------------------------------------------| 

   Want to be. 

e|---------------------------0---------------------| 
B|-----1-------1-------1--------------1------------| 
G|-----0-------0-------2--------------2------------| 
D|-------------------------2----2---------------0--| 
A|-3-------2-------0--------------0-----------0----| 
E|----------------------------------------0h2------| 

e|-----------3---------------3---------------3---------------3------| 
B|-----0---------------0---------------0---------------0------------| 
G|-----0---------------0---------------0---------------0------------| 
D|---------0---0-----------0---0-----------0---0-----------0---0----| 
A|------------------------------------------------------------------| 
E|-3---------------3---------------3---------------3----------------| 

(Repeat Verse) 

   Chaos in the streets,           Lonely hearts bear lonely beats, 

   In a world carved of steel,     And stone. 

(Repeat Verse) 

   Miscommunication,               Leads to fear and hesitation, 

   And it won't leave me alone. 

(Repeat Chorus) 

   But now in my tree. 

   I'm living free,                As any child would want to be. 

Bridge 

e|-----------0---------------0---------------2---------------2------| 
B|-----1---------------1---------------1---------------1------------| 
G|-----2---------------2---------------2---------------2------------| 
D|---------2---2-----------2---2-----------0---0-----------0---0----| 
A|-0---------------0------------------------------------------------| 
E|---------------------------------2---------------2----------------| 

   Maybe you and me,               Could make a home for, 

e|-----------3-------------------------------0---------------0------| 
B|-----0---------------0---------------0---------------0------------| 
G|-----0---------------0---------------0---------------0------------| 
D|---------0---0---------------------------2---2-----------2---2----| 
A|------------------------------------------------------------------| 
E|-3---------------3-------3---2---0---------------0----------------| 

   Us and someday free from the,   Strongest wood of the, 

e|-----------0---------------0---------------2---------------2------| 
B|-----1---------------1---------------1---------------1------------| 
G|-----2---------------2---------------2---------------2------------| 
D|---------2---2-----------2---2-----------0---0-----------0---0----| 
A|-0---------------0------------------------------------------------| 
E|---------------------------------2---------------2----------------| 

   The tallest tree and we'll be... 

e|-----------0---------------0-----------------0---------------0----| 
B|-----4---------------4-----------------0---------------0----------| 
G|-----4---------------4-----------------0---------------0----------| 
D|---------4---4-----------4---4-------------2---2-----------0---0--| 
A|-2---------------2---------------------------------2--------------| 
E|-----------------------------------0------------------------------| 

e|-----------0---------------0---------------2---------3-----3---------------3------| 
B|-----3---------------2---------------2---------------2---------------2------------| 
G|-----0---------------2---------------2---------------2---------------2------------| 
D|---------2---2-----------2---2-----------2---2-----------2---2-----------2---2----| 
A|-2---------------0---------------0---------------0---------------0----------------| 
E|----------------------------------------------------------------------------------| 

   C           Am 
   Living in a tree 
   C    G                          A      Aadd6       A7 
   Living free                     As any child would want to be. 

Outro 

e|---------------------------0------------------------------0-------| 
B|-----1-------1-------1--------------1---------------1-------------| 
G|-----0-------0-------2--------------2---------0-----0-------------| 
D|-------------------------2----2-------------0-----------2----2----| 
A|-3-------2-------0--------------0-------0h2-----3-----------------|   (play 11x) 
E|------------------------------------------------------------------| 

e|---------------------------0--------------------------------------| 
B|-----1-------1-------1--------------1-----------1-----------------| 
G|-----0-------0-------2--------------2---------0-0-----------------| 
D|-------------------------2----2-------------0---2-----------------| 
A|-3-------2-------0--------------0-------0h2-----3-----------------| 
E|------------------------------------------------------------------| 

************************************ 

| h   hammer-on 

************************************ 

Compartilhe esta música: novo

QR Code
Copiar