Shooting Star

Poison

Tom: E
(intro) 

--------------------------------------------------------------------------| 
--------------------------------------------------------------------------| 
--------------------------------------------------------------------------| 
--------------------------------------------------------------------------| 
-12--12--12--12----14--14--14----9--9--9--9--9--9----9--10--9--10--9--10--| 
-0---0---0---0-----0---0---0-----0--0--0--0--0--0----0--0---0--0---0--0---| 

--------------------------------------------------------------------------| 
--------------------------------------------------------------------------| 
--------------------------------------------------------------------------| 
--------------------------------------------------------------------------| 
-12--12--12--12----14--14--14----9--9--9--9--9--9----9--10--9--10--9--10--| 
-0---0---0---0-----0---0---0-----0--0--0--0--0--0----0--0---0--0---0--0---| 

----------------------------| 
----------------------------| 
 ---------------------------|   
--5----5----5----5----------| 
--6----6----6----6----------| 
----------------------------| 

(verso) 

---0--x----| 
---7--x----| 
---9--x----| 
---9--x----| 
---0--x----| 
---0--x----| 

-----------------------------------------------------| 
---3------5-------7-------7-7-7-7---10-10-10-10---12-| 
---5------7-------9-------9-9-9-9---12-12-12-12---14-| 
-----------------------------------------------------| 
-----------------------------------------------------| 
-----------------------------------------------------| 

( E B F# A ) 

Compartilhe esta música: novo

QR Code
Copiar