Nancy boy

Placebo

Tom: F
Tuning: standard Placebo-tuning, or just put a capo on the first fret like I did, so 
° fret 

Intro 
e|---------------------------------------------------------------------------| 
B|---------------------------------------------------------------------------| 
G|---------------------------------------------------------------------------| 
D|---------------------------------------------------------------------------| 
A|-7-7-7-7-7-7-7-7-7-7-7-7-7-7-7-7-7-7-7-7-7-7-7-7-7-7-7-7-7-7-7-7-7-7-7-7-7-| 
E|-0-0-0-0-0-0-0-0-0-0-0-0-0-0-0-0-0-0-0-0-0-0-0-0-0-0-0-0-0-0-0-0-0-0-0-0-0-| 
After you've listened to this piece you'll know how many times you'll have to play it. 

Verse 
e|---------------------------------------------------------------------------| 
B|---------------------------------------------------------------------------| 
G|---------------------------------------------------------------------------| 
D|---------------------------------------------------------------------------| 
A|-7-7-7-7-7-7-7-7-7-7-7-7-7-7-7-7-7-7-7-7-7-7-7-7-7-7-7-7-7-7-7-7-7-7-7-7-7-| 
E|-0-0-0-0-0-0-0-0-0-0-0-0-0-0-0-0-0-0-0-0-0-0-0-0-0-0-0-0-0-0-0-0-0-0-0-0-0-| 

e|---------------------------------------------------------------------------| 
B|---------------------------------------------------------------------------| 
G|---------------------------------------------------------------------------| 
D|-7-7-7-7-7-7-7-7-7-7-7-7-7-7-7-7-7-7-7-7-7-7-7-7-7-7-7-7-7-7-7-7-7-7-7-7-7-| 
A|-0-0-0-0-0-0-0-0-0-0-0-0-0-0-0-0-0-0-0-0-0-0-0-0-0-0-0-0-0-0-0-0-0-0-0-0-0-| 
E|---------------------------------------------------------------------------|  

e|---------------------------------------------------------------------------| 
B|---------------------------------------------------------------------------| 
G|---------------------------------------------------------------------------| 
D|---------------------------------------------------------------------------| 
A|-7-7-7-7-7-7-7-7-7-7-7-7-7-7-7-7-7-7-7-7-7-7-7-7-7-7-7-7-7-7-7-7-7-7-7-7-7-| 
E|-0-0-0-0-0-0-0-0-0-0-0-0-0-0-0-0-0-0-0-0-0-0-0-0-0-0-0-0-0-0-0-0-0-0-0-0-0-| 

e|---------------------------------------------------------------------------| 
B|---------------------------------------------------------------------------| 
G|---------------------------------------------------------------------------| 
D|-7-7-7-7-7-7-7-7-7-7-7-7-7-7-7-7-7-7-7-7-7-7-7-7-7-7-7-7-7-7-7-7-7-7-7-7-7-| 
A|-0-0-0-0-0-0-0-0-0-0-0-0-0-0-0-0-0-0-0-0-0-0-0-0-0-0-0-0-0-0-0-0-0-0-0-0-0-| 
E|---------------------------------------------------------------------------|  

Chorus 
e|---------------------------------------------------------------------------| 
B|---------------------------------------------------------------------------| 
G|-9-9-9-9-9-9-9-9-9-9-9-9-9-9-----------------------------------------------| 
D|-9-9-9-9-9-9-9-9-9-9-9-9-9-9-9-9-9-9-9-9-9-9-9-9-9-9-9-9-8-8-8-8-8-8-8-8-8-| 
A|-7-7-7-7-7-7-7-7-7-7-7-7-7-7-9-9-9-9-9-9-9-9-9-9-9-9-9-9-8-8-8-8-8-8-8-8-8-| 
E|-----------------------------7-7-7-7-7-7-7-7-7-7-7-7-7-7-6-6-6-6-6-6-6-6-6-| 

e|----------------------------------------| 
B|----------------------------------------| 
G|----------------------------------------| 
D|-8-8-8-8-8-7-7-7-7-7-7-7-7-7-7-7-7-7-7--| x2 
A|-8-8-8-8-8-7-7-7-7-7-7-7-7-7-7-7-7-7-7--| 
E|-6-6-6-6-6-5-5-5-5-5-5-5-5-5-5-5-5-5-5--| 


Verse 
Chorus 
Bridge = bass 
Chorus 
little bridge = bass 
chorus 
End on 
e|-------| 
B|-------| 
G|-------| 
D|-------| 
A|-7-----| 
E|-0-----| 

P.S.: For all verses you can also play 
e|----------------------------| 
B|----------------------------| 
G|--------------6-6-6-6-------| 
D|-6-6-6-6------7-7-7-7-etc.--| 
A|-7-7-7-7-etc.-0-0-0-0-------| 
E|-0-0-0-0--------------------| 
But this is just an option. 

Good luck with it. Chears. 

Compartilhe esta música: novo

QR Code
Copiar