36 Degrees

Placebo

Tom: F#
Intro/Verse: 

C  ----------------------------------------- 
C  -1-1-1-0-1-0-1-1-1-0-1-3-3-3-3-3-3-3-3-3- 
G# -2-2-2-2-2-2-2-2-2-2-2-0-0-0-0-0-0-0-0-0- 
Eb -3-3-3-3-3-3-3-3-3-3-3-5-5-5-5-5-5-5-5-5- 
Bb -3-3-3-3-3-3-3-3-3-3-3-5-5-5-5-5-5-5-5-5-REPEAT 
F  ----------------------------------------- 

Chorus (Album Version): 
This is played live by Stefan on the baritone guitar. 

C  -------------------------------------------------------------------- 
C  -13-13-13-12-13-12-13-13-13-12-13-12-15-15-15-13-13-12-12-12-13-15-- 
G# -------------------------------------------------------------------- 
Eb -------------------------------------------------------------------- 
Bb --------------------------------------------------------------------Repeat 
F  -------------------------------------------------------------------- 

Chorus (live): 
Brian plays this live. 

C  ----------------------------------------------------- 
C  ----------------------------------------------------- 
G# ----------------------------------------------------- 
Eb -10-10-10-10-10-10-10-10-10-10-10-10-10-10-10-10-10-- 
Bb -10-10-10-10-10-10-10-10-10-10-10-10-10-10-10-10-10--Followed by 
F  -8--8--8--8--8--8--8--8--8--8--8--8--8--8--8--8--8---(see below) 

C  -------------------------------- 
C  -------------------------------- 
G# -------------------------------- 
Eb -9-9-9-9-9-9-9-9-9-9-9-9-9-9-9-- 
Bb -7-7-7-7-7-7-7-7-7-7-7-7-7-7-7-- 
F  -0-0-0-0-0-0-0-0-0-0-0-0-0-0-0-- 


2nd verse guitar overlay: 
Once again, played live by Stefan on baritone guitar. 

C  ----------------------------- 
C  -12---15-13-12-------------- 
G# ---------------12---9-12-9-- 
Eb ---------------------------- 
Bb ---------------------------- 
F  ---------------------------- 

Straight after 'Shoulders, toes and knees...' bit: 

C  ----------------------------------------------------- 
C  -1-1-1-1-1-1-1-1-1-1-1-0-1-1-1-1-1-1-1-1-1-1-1-1-0-1- 
G# -2-2-2-2-2-2-2-2-2-2-2-2-2-x-x-x-x-x-x-x-x-x-x-x-x-x- 
Eb -3-3-3-3-3-3-3-3-3-3-3-3-3-2-2-2-2-2-2-2-2-2-2-2-2-2- 
Bb -3-3-3-3-3-3-3-3-3-3-3-3-3-2-2-2-2-2-2-2-2-2-2-2-2-2- 
F  ---------------------------3-3-3-3-3-3-3-3-3-3-3-3-3- 

F chord to end (chord used for intro). 

Compartilhe esta música: novo

QR Code
Copiar