Lasso

Phoenix

Tom: E
Intro: 

E|--7-6-6-7-6-6-7-6-|-7-6-6-7-6-6-7-6-|-------------------------| 
B|------------------|-----------------|------------------------| 
G|------------------|-----------------|------------------------| 
D|------------------|-----------------|------------------------| 
A|------------------|-----------------|------------------------| 
E|------------------|-----------------|------------------------| 


Verso 1 2x: 
E|-4-4-4-4-4-4-4-4-|-4-4-4-4-4-4-4-4-|-6-6-6-6-6-6-7-7-|-7-7-7-7-7-7-7-7-| 
B|-5-5-5-5-5-5-5-5-|-5-5-5-5-5-5-5-5-|-7-7-7-7-7-7-9-9-|-9-9-9-9-9-9-9-9-| 
G|-4-4-4-4-4-4-4-4-|-4-4-4-4-4-4-4-4-|-6-6-6-6-6-6-8-8-|-8-8-8-8-8-8-8-8-|  
D|-----------------|-----------------|-----------------|-----------------| 
A|-----------------|-----------------|-----------------|-----------------| 

Ponte: 

E|-----------------|-----------------|-----------------|-----------------| 
B|-----------------|-----------------|-----------------|-----------------| 
G|-6-6-6-4-4-4-6-6-|-6-4-4-4-6-6-4-4-|-6-6-6-4-4-4-6-6-|-6-4-4-4-6-6-4-4-| 
D|-6-6-6-4-4-4-6-6-|-6-4-4-4-6-6-4-4-|-6-6-6-4-4-4-6-6-|-6-4-4-4-6-6-4-4-| 
A|-4-4-4-2-2-2-4-4-|-4-2-2-2-4-4-2-2-|-4-4-4-2-2-2-4-4-|-4-2-2-2-4-4-2-2-| 
E|-----------------|-----------------|-----------------|-----------------| 


Refrão 2x: 

E|-----------------|-----------------|-------------------------|-------------------------| 
B|-9-9-9-9-9-9-9-9-|-9-9-9-9-9-9-9-9-|-11-11-11-11-11-11-12-12-|-12-12-12-12-12-12-12-12-| 
G|-9-9-9-9-9-9-9-9-|-9-9-9-9-9-9-9-9-|-11-11-11-11-11-11-13-13-|-13-13-13-13-13-13-13-13-| 
D|-----------------|-----------------|-------------------------|-------------------------| 
A|-7-7-7-7-7-7-7-7-|-7-7-7-7-7-7-7-7-|-9--9--9--9--9--9--11-11-|-11-11-11-11-11-11-11-11-| 
E|-----------------|-----------------|-------------------------|-------------------------| 



E|-----------------|-----------------|-------------------|-------------------------| 
B|-5-5-5-5-5-5-5-5-|-5-5-5-5-5-5-5-5-|-7-7-7-7-7-7-11-11-|-11-11-11-11-11-11-11-11-| 
G|-6-6-6-6-6-6-6-6-|-6-6-6-6-6-6-6-6-|-8-8-8-8-8-8-11-11-|-11-11-11-11-11-11-11-11-| 
D|-----------------|-----------------|-------------------|-------------------------| 
A|-4-4-4-4-4-4-4-4-|-4-4-4-4-4-4-4-4-|-6-6-6-6-6-6-9--9--|-9--9--9--9--9--9--9--9--| 
E|-----------------|-----------------|-------------------|-------------------------| 


Verso 2: 

E|-11-11-11-11-11-11-11-11-|-11-11-11-11-11-11-11-11-|-9--9--9--9--9--9--7-7-|-7-7-7-7-7-7-7-7-| 
B|-12-12-12-12-12-12-12-12-|-12-12-12-12-12-12-12-12-|-11-11-11-11-11-11-9-9-|-9-9-9-9-9-9-9-9-| 
G|-11-11-11-11-11-11-11-11-|-11-11-11-11-11-11-11-11-|-10-10-10-10-10-10-8-8-|-8-8-8-8-8-8-8-8-| 
D|-------------------------|-------------------------|-----------------------|-----------------| 
A|-------------------------|-------------------------|-----------------------|-----------------| 
E|-------------------------|-------------------------|-----------------------|-----------------| 



E|-4-4-4-4-4-4-4-4-|-0-0-0-0-0-0-0-0-|-6-6-6-6-6-6-7-7-|-7-7-7-7-7-7-7-7-| 
B|-5-5-5-5-5-5-5-5-|-2-2-2-2-2-2-2-2-|-7-7-7-7-7-7-9-9-|-9-9-9-9-9-9-9-9-| 
G|-4-4-4-4-4-4-4-4-|-1-1-1-1-1-1-1-1-|-6-6-6-6-6-6-8-8-|-8-8-8-8-8-8-8-8-| 
D|-----------------|-----------------|-----------------|-----------------| 
A|-----------------|-----------------|-----------------|-----------------| 
E|-----------------|-----------------|-----------------|-----------------| 


Refrão 2x: 

E|-----------------|-----------------|-------------------------|-------------------------| 
B|-9-9-9-9-9-9-9-9-|-9-9-9-9-9-9-9-9-|-11-11-11-11-11-11-12-12-|-12-12-12-12-12-12-12-12-| 
G|-9-9-9-9-9-9-9-9-|-9-9-9-9-9-9-9-9-|-11-11-11-11-11-11-13-13-|-13-13-13-13-13-13-13-13-| 
D|-----------------|-----------------|-------------------------|-------------------------| 
A|-7-7-7-7-7-7-7-7-|-7-7-7-7-7-7-7-7-|-9--9--9--9--9--9--11-11-|-11-11-11-11-11-11-11-11-| 
E|-----------------|-----------------|-------------------------|-------------------------| 


E|-----------------|-----------------|-------------------|-------------------------| 
B|-5-5-5-5-5-5-5-5-|-5-5-5-5-5-5-5-5-|-7-7-7-7-7-7-11-11-|-11-11-11-11-11-11-11-11-| 
G|-6-6-6-6-6-6-6-6-|-6-6-6-6-6-6-6-6-|-8-8-8-8-8-8-11-11-|-11-11-11-11-11-11-11-11-| 
D|-----------------|-----------------|-------------------|-------------------------|  
A|-4-4-4-4-4-4-4-4-|-4-4-4-4-4-4-4-4-|-6-6-6-6-6-6-9--9--|-9--9--9--9--9--9--9--9--| 
E|-----------------|-----------------|-------------------|-------------------------| 

Ponte: 

E|-----------------|-----------------|-----------------|-----------------| 
B|-----------------|-----------------|-----------------|-----------------| 
G|-6-6-6-4-4-4-6-6-|-6-4-4-4-6-6-4-4-|-6-6-6-4-4-4-6-6-|-6-4-4-4-6-6-4-4-| 
D|-6-6-6-4-4-4-6-6-|-6-4-4-4-6-6-4-4-|-6-6-6-4-4-4-6-6-|-6-4-4-4-6-6-4-4-| 
A|-4-4-4-2-2-2-4-4-|-4-2-2-2-4-4-2-2-|-4-4-4-2-2-2-4-4-|-4-2-2-2-4-4-2-2-| 
E|-----------------|-----------------|-----------------|-----------------| 



E|--7-6-6-7-6-6-7-6-|-7-6-6-7-6-6-7-6-| 
B|------------------|-----------------| 
G|------------------|-----------------| 
D|------------------|-----------------| 
A|------------------|-----------------| 
E|------------------|-----------------| 


Solo 1: 

E|-----------|----14-16-14--|-16---14-12-|--------14-------16------14----14-| 
B|-----------|--------------|------------|----------------------------------| 
G|-9------11\|13------------|------------|-11\13------13--------13----13----| 
D|-----------|--------------|------------|----------------------------------| 
A|-----------|--------------|------------|----------------------------------| 
E|-----------|--------------|------------|----------------------------------| 



E|-16--14-12---12-|--------14------16------14--|--16--14-12---12--|-----11----9-----7-6-| 
B|----------------|----------------------------|------------------|---------------------| 
G|----------------|-11\13------13------13------|------------------|--11----9-----8------| 
D|----------------|----------------------------|------------------|---------------------| 
A|----------------|----------------------------|------------------|---------------------| 
E|----------------|----------------------------|------------------|---------------------| 


Solo 2: 

E|---------11---------9---------|-11---------9----------11-----| 
B|-----12-----12---------12-----|-----12--------11----------12-| 
G|-11-------------11---------11-|---------11--------12---------| 
D|------------------------------|------------------------------| 
A|------------------------------|------------------------------| 
E|------------------------------|------------------------------| 



E|-----9----------11-------9-|---------11----------9---------| 
B|--------11---------12------|-11----------12---------12-----| 
G|-11---------12--------11---|-----12----------11---------11-| 
D|---------------------------|-------------------------------| 
A|---------------------------|-------------------------------| 
E|---------------------------|-------------------------------| 



E|-11--------9--------11----|-----9--------11--------9-| 
B|----12-------11--------12-|-------12--------12-------| 
G|-------11-------12--------|-11-------11--------11----| 
D|--------------------------|--------------------------| 
A|--------------------------|--------------------------| 
E|--------------------------|--------------------------| 



E|-------11--------9-------|--11--------9--------11----| 
B|12--------12-------12----|------12------12-----------| 
G|---11--------11-------11-|---------11------11--------| 
D|-------------------------|---------------------------| 
A|-------------------------|---------------------------| 
E|-------------------------|---------------------------| 


Outro: 
E|-----------------|-----------------|-----------------|-2-2-2-2-2-2-2---| 
B|-----------------|-----------------|-----------------|-----------------| 
G|-----------------|-----------------|-4-4-4-4-4-4-4-4-|-----------------| 
D|-----------------|-4-4-4-4-4-4-4-4-|-----------------|-----------------| 
A|-2-2-2-2-2-2-2-2-|-----------------|-----------------|-----------------| 
E|-----------------|-----------------|-----------------|-----------------| 

Compartilhe esta música: novo

QR Code
Copiar