Game Over

Pay No Respect

Tom: C
Intro 

D|--------------------------------------------------------------------------------| 
A|--------------------------------------------------------------------------------| 
F|--------------------------------------------------------------------------------| 
C|1-3-0------------3-----1-----0---------1-3-0-----------5-5-5-5-5-----------3-0--| 
G|1-3-0--0-0-0-0-0-3-0-0-1-0-0-0-0-0-0-0-1-3-0-0-0-0-0-0-3-3-3-3-3-1-1-1-1-1-3-0--| 
C|1-3-0--0-0-0-0-0-3-0-0-1-0-0-0-0-0-0-0-1-3-0-0-0-0-0-0-----------1-1-1-1-1-3-0--| x6 

you're falling down 

D|----------------------------------------------------------------| 
A|----------------------------------------------------------------| 
F|----------------------------------------------------------------| 
C|--------0-------0-------0-------------0-------0-------0---------| 
G|0-0-0-0-0-0-0-0-0-0-0-0-0-3-5-0-0-0-0-0-0-0-0-0-0-0-0-0-1-3-----| 
C|0-0-0-0-0-0-0-0-0-0-0-0-0-5-7-0-0-0-0-0-0-0-0-0-0-0-0-0-3-5-----| x2 



D|--------------------------------------------------------------------------------| 
A|--------------------------------------------------------------------------------| 
F|--------------------------------------------------------------------------------| 
C|1-3-0------------3-----1-----0---------1-3-0-----------5-5-5-5-5-----------3-0--| 
G|1-3-0--0-0-0-0-0-3-0-0-1-0-0-0-0-0-0-0-1-3-0-0-0-0-0-0-3-3-3-3-3-1-1-1-1-1-3-0--| 
C|1-3-0--0-0-0-0-0-3-0-0-1-0-0-0-0-0-0-0-1-3-0-0-0-0-0-0-----------1-1-1-1-1-3-0--| x6 


D|----------------------------------------------------------------| 
A|----------------------------------------------------------------| 
F|----------------------------------------------------------------| 
C|----------------------------------------------------------------| 
G|0-0-0-0-0---0-0-0-0-0-------------------------------------------| 
C|0-0-0-0-0---0-0-0-0-0-------------------------------------------| 

Breakdown 

D|------------------------------------------------------------------------| 
A|------------------------------------------------------------------------| 
F|------------------------------------------------------------------------| 
C|-----------------------1-3-1-4-1-3-------------------------1-3-1-4-3-1--| 
G|0-0-0-0-0---0-0-0-0-0--1-3-1-4-1-3--0-0-0-0-0---0-0-0-0-0--1-3-1-4-3-1--| 
C|0-0-0-0-0---0-0-0-0-0--1-3-1-4-1-3--0-0-0-0-0---0-0-0-0-0--1-3-1-4-3-1--| x2 

You fucking lose 

D|----------------------------------------------------------------| 
A|----------------------------------------------------------------| 
F|----------------------------------------------------------------| 
C|0--0--0---------------------------------------------------------| 
G|0--0--0---------------------------------------------------------| 
C|0--0--0--bunch of open notes (palm mute)------------------------| 

No time for you 

D|----------------------------------------------------------------| 
A|----------------------------------------------------------------| 
F|----------------------------------------------------------------| 
C|0--0--0---------------------------------------------------------| 
G|0--0--0--slide--------------------------------------------------| 
C|0--0--0---------------------------------------------------------| 


D|----------------------------------------------------------------| 
A|----------------------------------------------------------------| 
F|----------------------------------------------------------------| 
C|--------------------------------------------1-3--4-3-1-0--------| 
G|--------------------------------------------1-3--4-3-1-0--------| 
C|0-0-0-0-0-0-0-0-0-0-0-0-0-0-0-4-3-0-0-0-0-0-1-3--4-3-1-0--------| x2 


D|----------------------------------------------------------------| 
A|----------------------------------------------------------------| 
F|----------------------------------------------------------------| 
C|--------------------------1-3--4-3-1-0--------------------------| 
G|0-0-0-0-0-0---------------1-3--4-3-1-0--------------------------| 
C|1-1-1-1-1-1-4-3-0-0-0-0-0-1-3--4-3-1-0--------------------------| 


D|----------------------------------------------------------------| 
A|----------------------------------------------------------------| 
F|----------------------------------------------------------------| 
C|--------------------------------------------1-3--4-3-1-0--------| 
G|--------------------------------------------1-3--4-3-1-0--------| 
C|0-0-0-0-0-0-0-0-0-0-0-0-0-0-0-4-3-0-0-0-0-0-1-3--4-3-1-0--------| 

Compartilhe esta música: novo

QR Code
Copiar