Que país é este?

Paralamas do Sucesso

Guitarra 1 
e--------------------------------------------------- 
B--------------------------------------------------- 
G--------------------5-5-5-5--7-7-7-7--------------- 
D-2-2-2-2-2-2-2-2-2--5-5-5-5--7-7-7-7--------------- 
A-2-2-2-2-2-2-2-2-2--3-3-3-3--5-5-5-5--------------- 
E-0-0-0-0-0-0-0-0-0--------------------------------- 
 
Primeiro só a 1º guitarra toca, depois as duas tocaram juntas. 
Guitarra 2 
e----7----7----7----7----5----3----3----3----3----3-3-- 
B--5----5----5----5----3----5----5----5----5----5------ 
G------------------------------------------------------ 
D------------------------------------------------------ 
A------------------------------------------------------ 
E------------------------------------------------------ 
 
Um abraço para todos! 
Ariádina Moreira Rodrigues eu te AMO!!!!! 

Compartilhe esta música: novo

QR Code
Copiar