Tom The Drum

Palma Violets

Tom: E
Tuning:Standard 

e|-----------------------------------------Times-4--------------------------| 
B|--------------------------------------------------------------------------| 
G|--------------------------------------------------------------------------| 
D|--------------------------------------------------------------------------| 
A|-7-7-7-7-7-7-7-7--5-5-5-5--4-4-4-4----------------------------------------| 
E|-0-0-0-0-0-0-0-0--0-0-0-0--0-0-0-0----------------------------------------| 

 Drums come in 
e|-----------------------------------------Times-4--------------------------| 
B|--------------------------------------------------------------------------| 
G|--------------------------------------------------------------------------| 
D|--------------------------------------------------------------------------| 
A|-7-7-7-7-7-7-7-7--5-5-5-5--4-4-4-4----------------------------------------| 
E|-0-0-0-0-0-0-0-0--0-0-0-0--0-0-0-0----------------------------------------| 

Guitar stops 
   
 Oh you, I want to be alone 
 I want to talk to Tom 
 He knows more than you do 
 And we're bound to get along 
  

e|--------------------------------------------------------------------------| 
B|--------------------------------------------------------------------------| 
G|-9----------------7--------6---------9------------------------------------| 
D|-9----------------7--------6---------9------------------------------------| 
A|-7----------------5--------4---------7------------------------------------| 
E|-0----------------0--------0---------0------------------------------------| 

Guitar stops 

 Oh you, I don't wanna come and play 
 On your rollerblades today 
 I'd rather be with Tom 
 He always sings along 

e|--------------------------------------------------------------------------| 
B|--------------------------------------------------------------------------| 
G|-9------------------------------------------------------------------------| 
D|-9------------------------------------------------------------------------| 
A|-7---------------5--------4-----------------------------------------------| 
E|-0---------------0--------0-----------------------------------------------| 

e|--------------------------------------------------------------------------| 
B|--------------------------------------------------------------------------| 
G|-9------------------------------------------------------------------------| 
D|-9------------------------------------------------------------------------| 
A|-7---------------5--------4-----------------------------------------------| 
E|-0---------------0--------0-----------------------------------------------| 

e|--------------------------------------------------------------------------| 
B|--------------------------------------------------------------------------| 
G|--------------------------------------------------------------------------| 
D|-55555555-55555555-55555555-55555555-5555555-5----------------------------| 
A|-55555555-55555555-55555555-55555555-5555555-5----------------------------| 
E|-33333333-33333333-33333333-33333333-3333333-3----------------------------| 



TOMMMMMMMM THE! 
Release the Power Chords!!!!!! 


e|-----------------------------------------Times-4--------------------------| 
B|--------------------------------------------------------------------------| 
G|-9-9-9-9-9-9-9-9--7-7-7-7--6-6-6-6----------------------------------------| 
D|-9-9-9-9-9-9-9-9--7-7-7-7--6-6-6-6----------------------------------------| 
A|-7-7-7-7-7-7-7-7--5-5-5-5--4-4-4-4----------------------------------------| 
E|-0-0-0-0-0-0-0-0--0-0-0-0--0-0-0-0----------------------------------------| 


 Oh Tom, this human race 
 He always wins the race 
 Sent outta space 
 Get out of space 
  
e|--------------------------------------------------------------------------| 
B|--------------------------------------------------------------------------| 
G|-9---------------7--------6-----------------------------------------------| 
D|-9---------------7--------6-----------------------------------------------| 
A|-7---------------5--------4-----------------------------------------------| 
E|-0---------------0--------0-----------------------------------------------| 

e|--------------------------------------------------------------------------| 
B|--------------------------------------------------------------------------| 
G|-9------------------------------------------------------------------------| 
D|-9------------------------------------------------------------------------| 
A|-7---------------5--------4-----------------------------------------------| 
E|-0---------------0--------0-----------------------------------------------| 


Fucking Brilliant!!! 

e|-----------------------------------------Times-3--------------------------| 
B|--------------------------------------------------------------------------| 
G|-9-9-9-9-9-9-9-9--4-4-4-4--7-7-7-7----------------------------------------| 
D|-9-9-9-9-9-9-9-9--4-4-4-4--7-7-7-7----------------------------------------| 
A|-7-7-7-7-7-7-7-7--2-2-2-2--5-5-5-5----------------------------------------| 
E|-0-0-0-0-0-0-0-0--0-0-0-0--0-0-0-0----------------------------------------| 


 Chang chang chang 
 I want you to know 
 I got you to know 
 tom you are the one for me! Get Down! 

e|-----------------------------------------Times-7--------------------------| 
B|--------------------------------------------------------------------------| 
G|-9-9-9-9-9-9-9-9--4-4-4-4--7-7-7-7----------------------------------------| 
D|-9-9-9-9-9-9-9-9--4-4-4-4--7-7-7-7----------------------------------------| 
A|-7-7-7-7-7-7-7-7--2-2-2-2--5-5-5-5----------------------------------------| 
E|-0-0-0-0-0-0-0-0--0-0-0-0--0-0-0-0----------------------------------------| 

Slow the last time down!! And End on an E 

Compartilhe esta música: novo

QR Code
Copiar