Thunder Underground

Ozzy Osbourne

(x):hold yer finger between the 3rd and the 4th...don't push... 
 
The first riff is same as the song riff but loose the (x)'s 
 
 
Song riff 
 
pm...     ...     .....     ...... 
|---------------------------------------------| 
|---------------------------------------------| 
|---------------------------------------------| 
|---------------------------------------------| 
|-----(x)-----(x)-------(x)-------(x)-4/5-4/5-| 
|-0-0-(x)-0-0-(x)-0-0-0-(x)-0-0-0-(x)-2/3-2/3-| 
 
 
This one very simple... 
 
Chorus 
letring................................ 
|--------------------------------------| 
|--------------------------------------| 
|--------------------------------------| 
|--7--5--------------------------------| 
|--5--3-----------5---7----------------| 
|-----------------3---5----------------| 
 
 
The other riffs are much like the first but i think one goes like this... 
 
 
|-------------------------------------| 
|-------------------------------------| 
|-------------------------------------| 
|-------------------------------------| 
|-----0-----0-------0-------0-4/5-4/5-| 
|-0-0---0-0---0-0-0---0-0-0---2/3-2/3-| 
 
...I'm gonna figure that slow part out... 

Compartilhe esta música: novo

QR Code
Copiar