Paranoid

Ozzy Osbourne

Paranoid 

standard tuning 

p=palm mute 
ho=hammer on 
/=slide  

Intro 

E--------------------------------- 
B--------------------------------- 
G--------------------7-9-----7-9-- 
D-7ho9-7ho9-7ho9-7-9-----7-9------  times 4 
A--------------------------------- 
E--------------------------------- 

Verse 1 (part 1) 

E- 
B- 
G- 
D-99-9-9-9-9-9-9-9-9-9-9-9-9-9-9-77-7-7-7-7-7-7-9-7--9--11- 
A-99-9-9-9-9-9-9-9-9-9-9-9-9-9-9-77-7-7-7-7-7-7-9-7--9--11- 2 times 
E-77-7-7-7-7-7-7-7-7-7-7-7-7-7-7-55-5-5-5-5-5-5-7-5--7--9-- 
     p p p p p p p p p p p p p p    p p p p p p  

Verse 1 (Part 2) 

E---------------------------------------------- 
B---------------------------------------------- 
G---------------------------------------------- 
D7/9---7--9--11-11-9-9-9-9-9-9-9-9-9-9-9-9-9-9- 2 times 
A7/9---7--9--11-11-9-9-9-9-9-9-9-9-9-9-9-9-9-9- 
E5/7---5--7--9--9--7-7-7-7-7-7-7-7-7-7-7-7-7-7- 

Then back to Verse 1 (part 1) and this is part of paranoid which was created by ozzy 
wen he was in Black Sabbath 
E-mail me at [email protected] for questions or requests 

Compartilhe esta música: novo

QR Code
Copiar