No Bone Movies

Ozzy Osbourne

 
 main riff 
 
E|--------||------------------------------------------| 
B|--------||*-----------------------------------------| 
G|--------||--------2---------------------------------| 
D|--------||-------------5--4p--2----4p--2-----------| 
A|--------||*--0-------------------------------3p--0--| 
E|--0--3--||------------------------------------------| 
 
 
 
 
 
E|----------------------------|| 
B|--3--------3---------------*|| 
G|--2--------0----------------|| 
D|--0--x--x--0----------------|| 
A|---------------------2--0--*|| 
E|-----------3------3---------|| 
 
_______________________________________________________ 
Contribuição: Rafael da Sillva Carvalho Santana([email protected]) 

Compartilhe esta música: novo

QR Code
Copiar