My Jekyll doesn't hide

Ozzy Osbourne

 
riff1 
|-------------------------------| 
|----2--------------------------| 
|----2------------------2-------| 
|-2--0---/10--9--7/9-9--2--3--4-| 
|-4------/8---7--5/7-7--0--1--2-| 
|-------------------------------| 
  Listen the song and learn the timing... 
 
fill1   
        ah 
|---------------| 
|---------/-----| 
|--------/-----| 
|-------2-------| 
|-0-2-0------2--| 
|---------------| 
This fill is very complicated...just remember the artificial harmonic(ah).. 
Thats the main thing........ 
 
I don't know the second fill...it's very hard to keep up with Zakk Wylde... 
 
Riff2 
          ah.   .   . 
|------------------------| 
|------------------------| 
|------------------------| 
|------------------------| 
|-2-0-2-2-8-7---5---3----| 
|------------------------| 
     tremolo............. 
 
 
 
_______________________________________________________ 
Contribuição: ([email protected]) 

Compartilhe esta música: novo

QR Code
Copiar