Iron Man

Ozzy Osbourne

 
Tirado por Rômulo Teixeira - Banda DANUTS! 
 
Introdução 
 
e|--------------------------------|--------------------------------| 
B|--------------------------------|--------------------------------| 
G|--------------------------------|--------------------------------| 
D|--------------------------------|--------------------------------| 
A|--------------------------------|--------------------------------| 
E|(3)-------------1---------------|--------------------------------| 
 
Riff 1 
 
e|--------------------------------|------------------------------------| 
B|--------------------------------|------------------------------------| 
G|--------------------------------|------------------------------------| 
D|---5/7-10/11-5/7----------------|------------------------------------| 
A|-7-3/5--8/9--3/5----------------|------------------------------------| 
E|-5------------------------------|------------------------------------| 
 
Riff 2 
 
e|--------------------------------|--------------------------------| 
B|--------------------------------|--------------------------------| 
G|--------------------------------|--------------------------------| 
D|--------------------------------|6-5-6-5-6p5---------------------| 
A|3-------6-------6---8---8-------|------------6---6---8---8-------| 
E|--------------------------------|--------------------------------| 
 
Riff 3 
 
e|--------------------------------|--------------------------------| 
B|--------------------------------|--------------------------------| 
G|--------------------------------|--------------------------------| 
D|------------1-------------------|--------------------------------| 
A|3---3---3-----------3-------2---|1---1---1-------0---1---1---2---| 
E|--------------------------------|--------------1-----------------| 
 
e|--------------------------------|--------------------------------| 
B|--------------------------------|--------------------------------| 
G|--------------------------------|--------------------------------| 
D|------------1-------------------|--------------------------------| 
A|3---3---3-----------3-------2---|1---1---1-----------------------| 
E|--------------------------------|--------------------------------| 
 
Riff 4 
 
e|--------------------------------|--------------------------------| 
B|--------------------------------|--------------------------------| 
G|--------------------------------|--------------------------------| 
D|10------------------------------|8-------------------------------| 
A|8-------------------------------|6-------------------------------| 
E|--------------------------------|--------------------------------| 
 
Riff 5 
 
e|--------------------------------|--------------------------------| 
B|--------------------------------|--------------------------------| 
G|------------------------3-4-5---|------------------------3-4-5---| 
D|5---5-------3---3-4-5-----------|5---5-------3---3-4-5-----------| 
A|3---3---3-6---------------------|3---3---3-6---------------------| 
E|--------------------------------|--------------------------------| 
 
Riff 6 
 
e|--------------------------------|--------------------------------| 
B|--------------------------------|--------------------------------| 
G|7---5---------------------------|--------------------------------| 
D|------------7-------6-------5---|----3---------------------------| 
A|--------------------------------|------------3---3-h-5---5-------| 
E|--------------------------------|--------------------------------| 
 
Riff 7 
e|--------------------------------|--------------------------------| 
B|--------------------------------|--------------------------------| 
G|--------------------------------|--------------------------------| 
D|--------------------------------|--------------------------------| 
A|--------------------------------|--------------------------------| 
E|(3)-----------------------------|1-------------------------------| 
 
Riff 8 
 
e|--------------------------------|--------------------------------| 
D|--------------------------------|--------------------------------| 
G|--------------------------------|--------------------------------| 
D|--------------------------------|--------------------------------| 
A|8-p-6---8-------------------6h8-|6-------------------------------| 
E|--------------------------------|--------------------------------| 
 
e|--------------------------------|--------------------------------| 
B|--------------------------------|--------------------------------| 
G|--------------------------------|-----3---------------3----------| 
D|--------------------------------|5----6----5-----6----5(6)-------| 
A|8-p-6---8-----------------------|--------------------------6-----| 
E|--------------------------------|--------------------------------| 
                                             
           
Riff 9 (fim da música) 
 
e|--------------------------------| 
B|--------------------------------| 
G|--------------------------------| 
D|--------------------------------| 
A|8-p-6---8-----------------------| 
E|--------------------------------| 
 
_______________________________________________________ 
Contribuição: Rômulo Teixeira([email protected]) 

Compartilhe esta música: novo

QR Code
Copiar