Gets me trought

Ozzy Osbourne

Tom: D
 
Intro transcribed for guitar: 
e|------------------------|--------------------------------| 
B|------------8-----------|--------------------------------| 
G|-------9-------11-9-----|--------9------11--9------9-----| 
D|-----9---9----------9---|----10-----10---------10--------| 
A|---7--------------------|-(8)----------------------------| 
E|------------------------|--8-----------------------------| 
 
e|------------------------16------| 
B|--8-----------12-14-12----------| 
G|-----14-12--14------------------| 
D|--------------------------------| 
A|--------------------------------| 
E|----------------------------t6/-| 
			      Distortion (I tap here, some people pick the note) 
 
{Main Riff} 
I've seen many people striking the fifth fret of the E string 
and hammering on seven...however, if you think its easier you  
can hammer on the A and D string, as shown in paranthesis. 
Also when playing this there are parts where you have to stop 
the strings from ringing, under which I'll put a star, you should 
be able to figure it out tho. 
 
In the belowriff u have to bend the E string(fretted 2) to G, so 
its about a quarter bend. 
 
e|-----------------------------------------------------------| 
B|-----------------------------------------------------------| 
G|-----------------------------------------------------------| 
D|---------------------------------------------------(0h2)---| X2 
A|--2-2--2-2---2-2-2---2--2-2-2--2-2---2--2--2--(0h2)-5h7----| 
E|--0-0--0-2b--0-0-2b--0--0-0-0--0-2b--0--0--0--5h7----------| 
       *     *	     *	*      *     *  *  *  * 
{Verse} 
This isn't actually palm muted, as I said before, its played open 
but with the volume turned down..however..I still palm mute it 
live because u don't really have time to toy with the volume. 
 
e|----------------------------------------------------| 
B|----------------------------------------------------| 
G|----------------------------------------------------| 
D|----------------------------------------------------| 
A|--2-2--2-2---2-2-2---2--2-2-2--2-2---2--2-2---2--2--| 
E|--0-0--0-2b--0-0-2b--0--0-0-0--0-2b--0--0-2b--0--0--| 
  pm................................................. 
 
e|---------------------------------------------------------| 
B|---------------------------------------------------------| 
G|---------------------------------------------------------| 
D|---------------------------------------------------------| 
A|--2-2--2-2---2-2-2---2--2-2-2--2-2---2--2-2----X-X--X-X--| 
E|--0-0--0-2b--0-0-2b--0--0-0-0--0-2b--0--0-2b---X-X--X-X--| 
  pm...................................................... 
 
e|----------------------------------------------------| 
B|----------------------------------------------------| 
G|----------------------------------------------------| 
D|----------------------------------------------------| 
A|--2-2--2-2---2-2-2---2--2-2-2--2-2---2--2-2---2--2--| 
E|--0-0--0-2b--0-0-2b--0--0-0-0--0-2b--0--0-2b--0--0--| 
  pm................................................ 
 
e|--------------------------------------------------------| 
B|--------------------------------------------------------| 
G|--------------------------------------------------------| 
D|--------------------------------------------------------| 
A|--2-2--2-2---2-2-2---2--2-2-2--2-2---2--2-2---2-2-------| 
E|--0-0--0-2b--0-0-2b--0--0-0-0--0-2b--0--0-2b--0-0---3b/-| 
  pm.................................................    ^Unmute 
 
{Interlude}  
Vibrato all these chords, just shake your hand a bit, I know 
he vibratos. 
 
e|-----------------------------------------------| 
B|-----------------------------------------------| 
G|--9---11-12--9---11-12--5---12--11-5---12--11--| 
D|-----------------------------------------------| 
A|--7---9--10--7---9--10--3---10--9--3---10--9---| 
E|-----------------------------------------------| 
 
e|-----------------------------------------| 
B|-----------------------------------------| 
G|--9---11-12--9---11-12--5---12--11-5/7---| 
D|-----------------------------------------| 
A|--7---9--10--7---9--10--3---10--9--3/5---| 
E|-----------------------------------------| 
 
Solo: 
Use a wah all the way open(pressed forward) 
Also, in the beginning of the solo many tabs have had it played  
on the G string..in the video and in concert(my friend saw them,  
so I'm going by his word here) Zaak in fact plays it on the B 
 
e|--------------------------------------------------------| 
b|-5v~~~8hb~hb8~~8r-5v~~~~~~------------------------------| 
g|----------------------------8/14~~1211-11h12-----------| 
d|----------------------------------------------10v~~-----| 
a|--------------------------------------------------------| 
E|--------------------------------------------------------| 
 
e|----------------------------------| 
b|----------------------------------| 
g|-----12/14~~12hbr-11-12----------| 
d|--10--------------------10v~~/----| 
a|----------------------------------| 
E|----------------------------------| 
				There are some sfx in the 
				sliding sounds 
 
e|--------------------------------------| 
B|--------------------------------------| 
G|-t9p7p5h7-t9p7p5h7-t9p7p5h7-t9p7p5h7--| x3 
D|--------------------------------------| 
A|--------------------------------------| 
E|--------------------------------------| 
 
e|-------------------------------------------| 
B|-------------------------------------------| 
G|-t11p7p5h7-t11p7p5h7-t11p7p5h7-t11p7p5h7---| x3 
D|-------------------------------------------| 
A|-------------------------------------------| 
E|-------------------------------------------| 
 
e|---------------------------------------| 
B|---------------------------------------| 
G|-t9p7p5h7-t9p7p5h7-t9p7p5h7-t9p7p5h7---| x2 
D|---------------------------------------| 
A|---------------------------------------| 
E|---------------------------------------| 
 
e|-----------------------------------------------------| 
B|-----------------------------------------------------| 
G|-t14p7p5h7-t14p7p5h7-t14p7p5h7-t14p7p5h7--t12p7p5h7--| 
D|-----------------------------------------------------| x2 
A|-----------------------------------------------------| 
E|-----------------------------------------------------| 
 
(Do some sliding on the G and D string here) 
                /(heel back on the wah for this) 
e|--------------15fb~-15-17-15-17br-15--12-------------------------| 
B|-/17v~~-17p15----------------------------15fb-15-12--------------| 
G|----------------------------------------------------14fbr-14p12--| 
D|-----------------------------------------------------------------| 
A|-----------------------------------------------------------------| 
E|-----------------------------------------------------------------| 
 
	    
e|---------------------------------------------------------| 
B|---------t17p12p9h12-t17p12p9h12-t17p12p9h12-t17p12p9h12-| 
G|---------------------------------------------------------| 
D|-7hbr~~~-------------------------------------------------| 
A|---------------------------------------------------------| 
E|---------------------------------------------------------| 
                                    
e|-----------------------------------------| 
B|------10fb~~----5----4----3----11~~~~~~--| 
G|-7fb------------7fb--6fb--5fb--13fb~~~~--| 
D|-----------------------------------------| 
A|-----------------------------------------| 
E|-----------------------------------------| 
 
Do this really fast: 
e|--------| 
B|--------| 
G|--------| 
D|--------| 
A|--------| 
E|--/6---| 
 
{Main Riff} x2 
{Verse} 
 
Then this: 
e|----------- 
B|----------- 
G|----------- 
D|----------- 
A|--2----5--- 
E|--0----3--- 
 
{Main Riff} x6 
 
 
Notation: 
h  - hammer on 
b  - bend 
r  - return 
pb - pre-bend 
/  - slide up 
  - slide down 
v~ - vibrato 
t  - tap 
X  - dead note 
() - ghost note 
w- whammy bar 
     	 
 
Lyrics/Song Flow: 
 
{Intro} 
{Main Riff} x2 
 
{Verse} 
I'm not the kind of person you think I am 
I'm not the anti christ or the iron man 
I have a vision that I jsut can't control 
I feel I've lost my spirit and sold my soul 
 
{Main Riff} x2 
Got no control 
 
{Verse} 
I try to entertain you the best I can 
I wish I started walking before I ran 
But I still love the feeling I get from you 
I hope you never stop cause its gets me through 
 
{Main riff z2} 
Its gets my through yeah 
 
{Interlude} 
The feelings that I hide behind 
Sometimes reality's unkind 
The nightmares come for me at night  
I dread the long and lonely nights 
 
{Solo} 
{Main Riff x2} 
 
{Verse} 
I'm not the kind of person you think I am 
I'm not the anti christ or the iron man 
I have a vision that I jsut can't control 
I feel I've lost my spirit and sold my soul 
 
{Main Riff x6} 
I'm just trying to leave you 
I'm just trying to leave you 
I'm just trying to leave you 
I'm just trying to leave you 
 
 
_______________________________________________________ 
Contribuição: ([email protected]) 

Compartilhe esta música: novo

QR Code
Copiar