Facing Hell

Ozzy Osbourne

 
Riff 1 Intro e  Refrão 
 
E|------------------------------------------------------------------------ 
B|------------------------------------------------------------------------ 
G|------------------------------------------------------------------------ 
D|---0--0?6/5---3--0-0-0--3---0-0---------------------------------- 
A|---0--0?6/5---3--0-0-0--3---0-0---------------------------------- 
D|---0--0?6/5---3--0-0-0--3---0-0--6/12-12--12--12------------- 
 
 
E|------------------------------------------------------------------------ 
B|------------------------------------------------------------------------ 
G|------------------------------------------------------------------------ 
D|---0--0?6/5---3--0-0-0--6----------------------------------------- 
A|---0--0---6/5---3--0-0-0--6------------------------------------------ 
D|---0--0---6/5---3--0-0-0--6?3ha~~~~----------------------------              2x 
 
E|------------------------------------------------------------------------  No final do Riff ele 
B|------------------------------------------------------------------------  bate as tres cordas 
G|------------------------------------------------------------------------  soltas e empurra a 
D|----0------------------------------------------------------------------   alavanca para baixo 
A|----0------------------------------------------------------------------    devagar e vai soltanto  
D|----0-------------------------------------------------------------------- devagar  tb. Escute a 
                                                                                                       Para saber o tempo certo.  
 
Riff 2 - 1º Estrofe 
E|------------------------------------------------------------------------  
B|------------------------------------------------------------------------  
G|----------------------------------5--5--5--5---7--7--7--7-----------      
D|---0--0--0--0----1--1--1--1---5--5--5--5---7--7--7--7----------- 
A|---0--0--0--0----1--1--1--1---3--3--3--3---5--5--5--5----------- 
D|---0--0--0--0----1--1--1--1------------------0--0--0--0----5(7)-0?3(5)----              2x 
 
Riff 3 ? Interlude (Essa parte se faz abafando!) 
E|------------------------------------------------------------------------ 
B|------------------------------------------------------------------------ 
G|---------------------------------------------5-5-5-5-5-5-5-5---7-7-7-7-7-7-7-7--------- 
D|---0-0-0-0-0-0-0-0--1-1-1-1-1-1-1-1--5-5-5-5-5-5-5-5---7-7-7-7-7-7-7-7---------- 
A|---0-0-0-0-0-0-0-0--1-1-1-1-1-1-1-1--3-3-3-3-3-3-3-3---5-5-5-5-5-5-5-5----------- 
D|---0-0-0-0-0-0-0-0--1-1-1-1-1-1-1-1------------------------0-0-0-0-0-0-0-0-----------  2x 
 
Refrão: Riff 1 
2º Estrofe: Riff 2 
Interlude: Riff 3 
 
Refrão: Riff 1 
 
Riff 4 ? Interlude 2 
E|------------------------------------------------------------------------ 
B|------------------------------------------------------------------------ 
G|------------------------------------------------------------------------ 
D|---0-0-0--6--0--5--0-0-0--5--3---0-0-0--6--0--5--0-0-0--5-3---------------------------------- 
A|---0-0-0--6--0--5--0-0-0--5--3---0-0-0--6--0--5--0-0-0--5-3--------------------------------- 
D|---0-0-0--6--0--5--0-0-0--5--3---0-0-0--6--0--5--0-0-0--5-3----------------------------------- 
 
Essa Parte é com vibrato. 
E|---------------------------------------------------------------------- 
B|---------------------------------------------------------------------- 
G|---------------------------------------------------------------------- 
D|----------------------------------------------------------------------- 
A|----------------------------------------------------------------------- 
D|---0-0-0-6~~--0-5~~--0-0-0-5-3--0-0-0-6~~-0-5~~-0-0-0-5-3-0- Na ultima nota empurra  
									a alavanca!!! 
 
Solo... Alguma idéia? 
A base do solo é o Riff 3. 
Depois faz somente a parte de vibrato do Riff 4. 
Repete o Riff 2 
Refrão: Riff 1 
 
E|---------------------------------------------------------------------- 
B|---------------------------------------------------------------------- 
G|---------------------------------------------------------------------- 
D|----------------------------------------------------------------------- 
A|----------------------------------------------------------------------- 
D|---0-0-0-6~~--0-5~~--0-0-0-5-3--0-0-0-6~~-0-5~~-0-0-0-5-3- 
 
E|---------------------------------------------------------------------- 
B|---------------------------------------------------------------------- 
G|---------------------------------------------------------------------- 
D|----------------------------------------------------------------------- 
A|----------------------------------------------------------------------- 
D|---0-0-0-6~~--0-5~~--0-0-0-5-3--0-0-0-6~~-0-5~~-0-0-0-5-3- 
 
E|---------------------------------------------------------------------- 
B|---------------------------------------------------------------------- 
G|---------------------------------------------------------------------- 
D|----------------------------------------------------------------------- 
A|----------------------------------------------------------------------- 
D|---0-0-0-6~~--0-5-------------------------------------------------- 
 
Fim!!! 
 
 
 
 
_______________________________________________________ 
Contribuição: Victor Ferreira Suehtt Nogueira([email protected]) 

Compartilhe esta música: novo

QR Code
Copiar