Crazy Train Intro

Ozzy Osbourne

Bass Intro 
 
E|-------------------------------------| 
B|-------------------------------------| 
G|-------------------------------------| 
D|---------------------------7-7-------| 
A|-4-4----7-7--2-2--4-4------5-5---2-2-| 
E|-2-2----5-5--0-0--2-2------------0-0-| 
 
E|----------------------------------| 
B|----------------------------------| 
G|----------------------------------| 
D|----------------------------------| 3x 
A|-----4---5---4--2--------2--------| 
E|-2-2---2---2---2---5p4p5---5p4p0~-| 
 
E|-----------------------------| 
B|----------5--------5----3--2-| 
G|----------6--------4----2--2-| 
D|----------7--------6----4--2-|2x 
A|-----0000-----0000----00--0--| 
E|-----------------------------| 

Compartilhe esta música: novo

QR Code
Copiar