Linguagem Do Alunte

Os Novos Baianos

GUITARRA 2 

Intro: 

Riff 1 
 
E||----------------------------------------|| 
B||--9r---7---------9------7---------------|| 
G||--9r---7----9----9------7---------------|| 
D||------------9---------------------------|| 6X 
A||-----------------------------12--11-9---|| 
E||-----------------------------10--9--7---|| 
 

_____________________ 
Riff 2 
 
E||-------------|| 
B||-------------|| 
G||-------------|| 
D||-------------|| 
A||--12--11-9---|| 
E||--10--9--7---|| 
 


 
Be-o-bó-le-a-la, bola  	      riff 2 
Te-é-té-le-a-la, tela         riff 2 
A-te-é-té-le-a-la, até lá     riff 2 
Te-Lê-a-la-le-e-lê-li, lua    riff 2 
Re-a-rá-rê-e-ré-rê-e-ri, rua  riff 2 
 


 
E||--------------------|-------------------|--------------------------|------------------------|| 
B||--------------------|-------------------|--------------------------|------------------------|| 
G||--------------------|-------------------|--------------------------|------------------------|| 
D||-----------2--0--2~-|-------------------|--------------------------|------------------------|| 
A||--2--4--5-----------|-------------------|--------------------------|------------------------|| 
E||--------------------|-D|-----C#m7--Bm7---|------C#m7--C#m7-Cm7--Bm7-|------------Bm7---------|| 
 
                         Aí já é    alunte   Seme-lhante de--la   vive  Porque não temos tempo 



 
E||-----------------------|---------------------|--------------------|-----------------------------|| 
B||-----------------------|---------------------|--------------------|-----------------------------|| 
G||-----------------------|---------------------|--------------------|-----------------------------|| 
D||--2--4-----4-----4-----|----------------2----|--------2--4-----2--|-----------------------------|| 
A||--------5-----4-----2--|---------------------|--2--4--------4-----|--------2-----4------5---2---|| 
E||-----------------------|---------------------|--------------------|--2--------------------------|| 
 
		       pra  esses papos pensados                      estamos na linguagem do alunte 



 
E||--------------------|--------------------------|-----------------------------------|---------------------------------|| 
B||--------------------|--------------------------|-----------------------------------|---------------------------------|| 
G||--------------------|-----------------1-1-2-1--|-----------------------------------|--9--7--6----9-------------------|| 
D||--4----4------4-----|-----------------2--------|--4-----4-----4--------------------|-----------9-----7----8----9-----|| 
A||----5------4-----2--|-----------------2--------|-----5-----4-----2-----------------|---------------------------------|| 
E||--------------------|--------------------------|-----------------------------------|---------------------------------|| 
 
    pa-la-vra no-va que  dispensa explicação        pra-la mui-to pra-la de alucinação  ter quer dizer nada ande teremos 



 
E||-------------------------------|------------------------|| 
B||-------------------------------|----------------9-8-7---|| 
G||-------------------------------|----------------9-8-7---|| 
D||-------------------------------|----------------9-8-7---|| 
A||---5---7------5-----4-----2----|-----5--7---------------|| 
E||-7--------7--------------------|--7---------------------|| 
 
    a-com-pa-nhO dia chega extrema  luz so-lar do mei-o dia   


Na primeira vez:  Riff 1   6x (enquanto a guitarra 1 sola) 

	VOLTA PARA O INÍCIO 

Na segunda vez: 

Riff 1 
Do meio-dia... 
Riff 1 
Do meio-diaaaa 
Riff 1 
Do meio-diaaaaaa 
Riff 1 
Do meio-diaa 
Riff 1 
Do meio-dia 
Riff 1 


Riff 3 
 
E||-------------------------|| 
B||--7--7--7----15--14--12--|| 
G||--7--7--7----17b-16b-14b-|| 
D||--7--7--7----------------|| 2x (enquanto a guitarra 1 sola) 
A||-------------------------|| 
E||-------------------------|| 
 

Riff 3 
 
Be-o-bó-le-a-la, bola 
 
Riff 3 
 
Te-é-té-le-a-la, tela 
 
Riff 3 
 
Be-o-bó-le-a-la, bola 
 
Riff 3 
 
Te-é-té-le-a-la, tela 
 

Riff 3 
 
A-te-é-té-le-a-la, a te lá 
 
Riff 3 
 
Le-lu-e-lé, Alunte 
 
Riff 3 
Alunte 
Riff 3 
Aí já é Alunte 

Riff 3 
 
Lê-la-le-é-lé-le-e-li-le-e lua 
 

Riff 3 
 
Re-a-rá-rê-e-ré-rê-e-ri-rê-e rua 
 

Riff 3 
Acompanhe a luz solar ! 

Riff 3              
    
obs: se a tablatura não ficar legal, copiem e colem no bloco de notas... correções serão bem vindas = 

divirtam-se 

Compartilhe esta música: novo

QR Code
Copiar