Naruto Sad Song

Naruto

Solo 1 
e-----10-10--8-6-5---------------------- 
B---8---------------6--8------------6--- 
G-7-----------------------7-6-7--5------ 
D--------------------------------------7 
A--------------------------------------- 
E--------------------------------------- 
Solo 2 
e-----10-10--8-6-5------------- 
B---8---------------6--8--10-11 
G-7---------------------------- 
D------------------------------ 
A------------------------------ 
E------------------------------ 
Solo3 
e-----10-10--8-6-5-------------- 
B---8---------------6--8--10-6-8 
G-7----------------------------- 
D------------------------------- 
A------------------------------- 
E------------------------------- 


Solo: 1 | 2 | 1 | 3 | instrumental | 1 | 3 | instrumental | 1 | 2 


xD 

Compartilhe esta música: novo

QR Code
Copiar