Blue Bird

Naruto

Tom: G
Tab - Intro - Primeira Seção  

Parte 1 de 4 
          C7M(9)    Bm7     Em 
E|---0h2--3---------2-------0---------------| 
B|-0------0------0--3-------------0---------| 
G|--------0----0----2----2------0-----------| 
D|-----------2---------0------2-------------| 
A|--------3---------2-----------------------| 
E|--------------------------0---------------| 

Parte 2 de 4 
            Am7(9)     D11          G   H.N. 
E|-0-----2--3-----3----5--------------------| 
B|-----0----------0----8----8-8/10------12--| 
G|----------------5----7----------------12--| 
D|---2----------5---5--0--0-------------12--| 
A|------------0---------------------10------| 
E|----------------------------------------3-| 

Parte 3 de 4 
          C9        Bm7     Em  
E|---0-2--3---------2-------0---------------| 
B|-0------3------3--3-------0----0----------| 
G|--------0----0----2----2--0--0------------| 
D|-----------2---------0----2---------------| 
A|--------3---------2-------2---------------| 
E|--------------------------0---------------| 

Parte 4 de 4 
     H.N.   Am    H.N.  D5      Em              
E|-0------------0---------------------------| 
B|---12-----------12------3--3----/5--5-----| 
G|------------------------2--2----/4--4-----| 
D|------7------------7----0--0----/5--5-----| 
A|----------0-----------5-------------------| 
E|------------------------------0-----------| 

Tab - Intro - Segunda Seção 

Parte 1 de 2 
   C7M    D11      Em                       
E|-7---7--5--------5---/7-0--3---2-0--------| 
B|-0---3--3-----3--0------0--0---0-0--------| 
G|-0-0-0------0-0--4---/7-0--4---2-0--------| 
D|-----x--------4---------------------------| 
A|-3---x----5---x------------------x--------| 
E|-------------------0---------0---x--------| 

Parte 2 de 2 
   Am7               B7(11)                                  
E|-3--------3--------0-----0--------0-------| 
B|-------1--------1--------0--4-----4-------| 
G|-----0-0------0-0------2--------4---------| 
D|-------2--------2--------x--------x-------| 
A|---0---x----0---x----2---x----2---x-------| 
E|-------x--------x-------------------------| 

Parte 2 de 2 - Variação    
   Am7               B7(11)                                  
E|-3--------3--------0-----0--------0-2-----| 
B|-------1--------1--------0--4---0---------| 
G|-----0-0------0-0------2------------------| 
D|-------2--------2--------x--------x-------| 
A|---0---x----0---x----2---x----2---x-------| 
E|-------x--------x-------------------------| 

Parte Final 
   Em7(9)         Em7                   
E|-2--------------3-------------------------| 
B|-3--------------3-------------------------| 
G|-4--------------0-------------------------| 
D|-4--------------2-------------------------| 
A|----------------2-------------------------| 
E|-0--------------0-------------------------| 

Tab - Primeira Parte 

Parte 1 de 4 
         Em    D       C       G/B 
E|---0-2-3---3-2---0---0--------------------| 
B|-0-------0-0-------3---------0---0-0-0----| 
G|-------------------------0-2--------------| 
D|-------2---x---0---x----------------------| 
A|-----------------------3---x---2---x------| 
E|------------------------------------------| 

Parte 1 de 4 - Variação 
   Em    D             C       G/B 
E|-3---3-1/2---0h2p0---0--------------------| 
B|---0-0-------------3---------0---0-0-0----| 
G|-------------------------0-2--------------| 
D|-2---x-----0-------x----------------------| 
A|-----------------------3---x---2---x------| 
E|------------------------------------------| 

Parte 2 de 4 
   Am     G          D/F#   B7       
E|-------------------0h2-3--2-----0-2-------| 
B|-1/3-5--3---3-3-3--3---3--0---0-0---------| 
G|-2/4-5--4---4-4-4--2----------2-----------| 
D|------------------------------------------| 
A|-0--------------------------2---x---------| 
E|-----x----3---x----2---x------------------| 

Parte 3 de 4 
   Em    D             C       G/B             
E|-3---3-1/2---0h2p0---0--------------------| 
B|---0-0-------------3---------0---0-0-0----| 
G|-------------------------0-2--------------| 
D|-2---x-----0-------x----------------------| 
A|-----------------------3---x---2---x------| 
E|------------------------------------------| 

Parte 4 de 4 
   Am7   D        Em                    
E|---3---2p0--------------------------------| 
B|-1-----3---3-3---5-5----------------------| 
G|-0-----2---2-2---4-4----------------------| 
D|-2-----0---------5-5----------------------| 
A|-0----------------------------------------| 
E|---x-------x---0--------------------------| 

Tab - Segunda Parte 

Parte 1 de 4 
          C9              C6(9)             
E|---0h2--3-----3-----3---2---0-----2-2-3---| 
B|-0------3---3-3-----3---3---3-3-----3-----| 
G|------------0-------0---2-----2-----------| 
D|----------2-2-----2---2---2---------------| 
A|--------3-------3-------3-------3---------| 
E|------------x-------x-------x-------x-----| 

Parte 2 de 4 
   B7              Em                    
E|-5-----5-----5---3---2-0-------5----------| 
B|-4---4-4-----4---0---0-----5-8------------| 
G|-4-4-4-----4---4-4-4-3-0------------------| 
D|------------------------------------------| 
A|-2-------2--------------------------------| 
E|-----x-------x---0---x---0---x------------| 

Parte 3 de 4 
   Am                               
E|-7---------5---7-------7-10---8-----------| 
B|-5---5-8---5---5-----5---8----8-----------| 
G|-5-5-5-5-----5-----5-5------7-7-----------| 
D|-------------5-------5--------------------| 
A|-0-------0---------------0----------------| 
E|-----x-------x---0---x--------x-----------| 

Parte 4 de 4 
   B11              B                 
E|-7---7-7---7-7-7--7-------7---------------| 
B|-0---0-0---0-0-0--0-----0-0-------7-------| 
G|-9---9-9-9-9-9-9--8-----8-8-----9---------| 
D|----------------------9-------9-----------| 
A|-------x-------x--------x-------x---------| 
E|---7---x---7---x----7---x---7---x---------| 

Tab - Variação Final 

Intro - Primeira Seção 

Parte 1 de 4 
   C9       Bm7   Em                              
E|-3---3----2---2-0-------0-----2-----------| 
B|-3---3----3---3-0-----0-0-----0-----------| 
G|-----0-0--2---2-0-----0-------------------| 
D|---2--------0-------2-------2-------------| 
A|-3---x----2---x-------x-------x-----------| 
E|------------------0-------0---------------| 

Parte 2 de 4 
   Am7(9)    D11    G                               
E|-3-----3---5----------------------0h2-----| 
B|-0-----0---8---8--10----12------0-0-------| 
G|-5-----5-0-7-7-7--------12----------------| 
D|-----5-----0---0--------12----------------| 
A|---0---0-------------10-----------x-------| 
E|-------x-------x-----------x-h3---x-------| 

Parte 3 de 4 
   C9       Bm7   Em  
E|-3---3----2---2-0-------0-----------------| 
B|-3---3----3---3-0-----0-0-----------------| 
G|-----0-0--2---2-0-----0-------------------| 
D|---2--------0-------2---------------------| 
A|-3---x----2---x-------x-------------------| 
E|------------------0-------0---------------| 

Parte 4 de 4 
          Am       D5        Em                       
E|-0--7\--5---0-7\-5------------------------| 
B|----0---5-----0--3---3---3---/5-5---------| 
G|----4\--5-----4\-2---2---2---/4-4---------| 
D|-------------------0---x-----/5-5---------| 
A|----x-----0------------x------------------| 
E|---------------------------0------0-------| 

Compartilhe esta música: novo

QR Code
Copiar