Blunt of Judah

Nação Zumbi

Tom: Em
 
Começa assim... 
 
Riff1: 
e|------------------------------------------------| 
B|------------------------------------------------| 
G|--------------3-3-3-3-3-3-3----------------3-1--| 
D|3-3-3-3-3-3-3-3-3-3-3-3-3-3-3-3-3-3-3-3-3--3-1--| 
A|3-3-3-3-3-3-3-1-1-1-1-1-1-1-3-3-3-3-3-3-3--1-1--| 
E|1-1-1-1-1-1-1---------------1-1-1-1-1-1-1-------| 
 
Riff2: 
e|----------------| 
B|----------------| 
G|---------3-3-3--| 
D|--3-3-3--3-3-3--| 
A|--3-3-3--1-1-1--| 
E|--1-1-1---------| 
 
Riff3: (Refrão) 
e|---------------------------------| 
B|---------------------------------| 
G|-------3-3/5-5-5-----3?-3/5-3/5--| 
D|--3-3--3-3/5-5-5-3-3-3?-3/5-3/5--| 
A|--3-3--1-1/3-3-3-3-3-1--1/3-1/3--| 
E|--1-1------------1-1-------------| 
 
Riff4: (Este Riff fica no refrão, durante o riff3,?Todo caminho do Blunt Of Judah?) 
e|-----------------| 
B|-----------------| 
G|-----------------| 
D|------222--------| 
A|--444-----222-4--| 
E|-----------------| 
 
Riff1 2x 
Riff2 (Várias vezes, durante os versos) 
Eu estou bem na minha cura 
Por que na fadiga do vento é que o veneno circula 
E o remédio bem deve saber 
Que acabou o descanso pra encontrar a cura 
Fêmea sonhadora 
Seus devaneios 
Me fazem ver através das portas 
E até atravessar espelhos 
 
Riff1 
 
Riff3 2x: 
Todo o caminho do Blunt Of Judah 
Pra ficar sonhando depois que acordar 
Todo o caminho do Blunt Of Judah 
Pra ficar sonhando depois que acordar 
 
Riff2 (Várias vezes, durante os versos) 
Interado com fumaça ativa 
Flutuando sem nenhuma estrela 
Em plena menção sativa 
Escaneando o dia 
Revelando a seqüência inteira se ligando 
Pelos olhos e ouvidos 
Verdadeira odisséia nascerá 
Sempre ativa nesta zona 
Janela vive acesa 
Vi a erva santa sem amônia 
 
Riff3 2x: 
Todo o caminho do Blunt Of Judah 
Pra ficar sonhando depois que acordar 
Todo o caminho do Blunt Of Judah 
Pra ficar sonhando depois que acordar 
 
Riff2 (Várias vezes, durante os versos) 
O vermelho e amarelo na tintura do véu 
A fumaça era grande, subia no céu. 
Iluminismo do dumismo do zumbi 
A babilônia não está tão longe  
Pela quantidade que se consome 
O Paraíso desta vez vem logo 
Como um ligar sem nome 
 
Riff3 2x: 
Todo o caminho do Blunt Of Judah 
Pra ficar sonhando depois que acordar 
Todo o caminho do Blunt Of Judah 
Pra ficar sonhando depois que acordar 
 
Riff1 3x 
 
Obs: Tentem para a parte da letra, pois eu fui escrevendo o que  
ouvia, podendo haver erros, se for necessário corrija-a. 
 
 
_______________________________________________________ 
Contribuição: Renato Jr([email protected]) 

Compartilhe esta música: novo

QR Code
Copiar