Red Paper Lanterns

Maybeshewill

Tom: Bb
Tuning: eb Bb F# C# G# Eb 

0:00 
e|--------7-----------7-----------7-----------7------------------------------| 
B|--5-----------5-----------5-----------5------------------------------------| 
G|-----6-----6-----6-----6-----6-----6-----6-----6---------------------------| 
D|---------------------------------------------------------------------------| 
A|---------------------------------------------------------------------------| 
E|---------------------------------------------------------------------------| 

e|--------11-----------11-----------11-----------11--------------------------| 
B|--7------------7------------7------------7---------------------------------| 
G|-----9------9-----9------9-----9------9-----9------9-----------------------| 
D|---------------------------------------------------------------------------| 
A|---------------------------------------------------------------------------| 
E|---------------------------------------------------------------------------| 

e|---------12-------------12-------------12-------------12-------------------| 
B|--9--------------9--------------9--------------9---------------------------| 
G|-----11------11-----11------11-----11------11-----11------11---------------| 
D|---------------------------------------------------------------------------| 
A|---------------------------------------------------------------------------| 
E|---------------------------------------------------------------------------| 

e|---------14--------------14--------------16--------------16----------------| 
B|--12-------------12--------------12--------------12------------------------| 
G|------13-----13------13------13------13------13------13------13------------| 
D|---------------------------------------------------------------------------| 
A|---------------------------------------------------------------------------| 
E|---------------------------------------------------------------------------| 

1:06 
e|-----------------------14-14-14-14--11-11-11-11--12-12-12-12---------------| 
B|--12-12-12-12-12-12-12---------------------------------------12-12-12-12---| 
G|---------------------------------------------------------------------------| 
D|---------------------------------------------------------------------------| 
A|---------------------------------------------------------------------------| 
E|---------------------------------------------------------------------------| 

e|------------------------------------16-16-16-16--12-12-12-12--14-14-14-14--| 
B|--9-9-9-9-9-9-9-9-9-9-9-9-9-9-9-9-9----------------------------------------| 
G|---------------------------------------------------------------------------| 
D|---------------------------------------------------------------------------| 
A|---------------------------------------------------------------------------| 
E|---------------------------------------------------------------------------| 

e|--11-11-11-11--12-12-12-12-------------------------------------------------| 
B|----------------------------12-12-12-12------------------------------------| 
G|---------------------------------------------------------------------------| 
D|---------------------------------------------------------------------------| 
A|---------------------------------------------------------------------------| 
E|---------------------------------------------------------------------------| 

1:57 
(Now is with tapping: the notes in parenthesis are with the sx hand  the others with the tapping) 
    p= pull off 
e|---------------------------------------------------------------------------| 
B|---------------------------------------------------------------------------| 
G|---------------------------------------------------------------------------| 
D|--14p(9)--16/18----14p(9)--16/18--14----14p(9)--16/18----14p(9)--16/18--14-| 
A|---------------------------------------------------------------------------| 
E|---------------------------------------------------------------------------| 

e|----------------------------------------------------------------12/14p(12)-| 
B|---------------------------------------------------------------------------| 
G|---------------------------------------------------------------------------| 
D|--14p(9)--16/18----14p(9)--16/18--14----14p(9)--16/18----14p(9)------------| 
A|---------------------------------------------------------------------------| 
E|---------------------------------------------------------------------------| 

3:16 
e|-----------------------11-11-11-11--12-12-12-12--14-14-14-14-14-14-14------| 
B|--12-12-12-12-12-12-12-----------------------------------------------------| 
G|---------------------------------------------------------------------------| 
D|---------------------------------------------------------------------------| 
A|---------------------------------------------------------------------------| 
E|---------------------------------------------------------------------------| 

e|--11-11-11-11--12-12-12-12--16-16-16-16-16-16-16--11-11-11--12-12-12-12-12-| 
B|---------------------------------------------------------------------------| 
G|---------------------------------------------------------------------------| 
D|---------------------------------------------------------------------------| 
A|---------------------------------------------------------------------------| 
E|---------------------------------------------------------------------------| 

e|--16-16-16-16--12-12-12-12--14-14-14-14--11-11-11-11-----------------------| 
B|---------------------------------------------------------------------------| 
G|---------------------------------------------------------------------------| 
D|---------------------------------------------------------------------------| 
A|---------------------------------------------------------------------------| 
E|---------------------------------------------------------------------------| 

 

Compartilhe esta música: novo

QR Code
Copiar