Gimme More

Machinae Supremacy

Tom: D
Drop D 

Intro =  

E|-------------------|-------------------|----------| 
B|-------------------|-------------------|----------| 
G|-------------------|-------------------|----------|(x2) 
D|---4444--7777--6666|-0000--4-4--7-7-7--|6-6--0-0-0| 
A|---4444--7777--6666|-0000--4-4--7-7-7--|6-6--0-0-0| 
D|---4444--7777--6666|-0000--4-4--7-7-7--|6-6--0-0-0| 

No Guitar For The Verse. 

Pre Chorus =  

E|-------------------|-------------------|----------| 
B|-------------------|-------------------|----------| 
G|-------------------|-------------------|----------| 
D|---4444--7777--6666|-0000--4-4--7-7-7--|6-6--0-0-0| 
A|---4444--7777--6666|-0000--4-4--7-7-7--|6-6--0-0-0| 
D|---4444--7777--6666|-0000--4-4--7-7-7--|6-6--0-0-0| 


 |-------------------|-------------------|------| 
 |-------------------|-------------------|------| 
 |-------------------|-------------------|------| 
 |---4444--7777--6666|-0000--4-4--7-7-7--|6-6---| 
 |---4444--7777--6666|-0000--4-4--7-7-7--|6-6---| 
 |---4444--7777--6666|-0000--4-4--7-7-7--|6-6---| 

Chorus =  

E|-------------------|-------------------| 
B|-------------------|-------------------| 
G|-------------------|-------------------|(x2) 
D|---4444--7777--2222|22--00000000--2-2--| 
A|---4444--7777--2222|22--00000000--2-2--| 
D|---4444--7777--2222|22--00000000--2-2--| 

No Guitar For 2nd Verse. 
Return To The Pre Chorus. 

Chorus =  

E|-------------------|-------------------| 
B|-------------------|-------------------| 
G|-------------------|-------------------|(x2) 
D|---4444--7777--2222|22--00000000--2-2--| 
A|---4444--7777--2222|22--00000000--2-2--| 
D|---4444--7777--2222|22--00000000--2-2--| 

Solo =  

E|-------------------|-------------------|------------------| 
B|--10----10----10---|10----10-----------|12-10----12-10----| 
G|-----11----11----11|---11----11-9-11---|------11-------11-| 
D|-------------------|-------------------|------------------| 
A|-------------------|-------------------|------------------| 
D|-------------------|-------------------|------------------| 

 |-------------------|-------------------|-------------------| 
 |13-10----12-10-----|--------10----10---|-10----10----10----| 
 |------11-------11-9|---9-11----11----11|----11----11----11-| 
 |-------------------|11-----------------|-------------------| 
 |-------------------|-------------------|-------------------|    
 |-------------------|-------------------|-------------------|  

 |-------------------|-------------------|-------------------| 
 |17-(17)17----------|-----------10----10|----10----10----10-| 
 |----------16-16----|16----14------11---|-11----11----11----| 
 |-------------------|---16--------------|-------------------| 
 |-------------------|-------------------|-------------------| 
 |-------------------|-------------------|-------------------| 

 |-------------------|-------------------|-------------------| 
 |----12-10----12-10-|---13-10----12-10--|-----------10----10| 
 |11--------11-------|11-------11------11|-9----9-11----11---| 
 |-------------------|-------------------|---11--------------| 
 |-------------------|-------------------|-------------------| 
 |-------------------|-------------------|-------------------| 

 |-------------------|----------14-19-14-|---14-14-19-14-----| 
 |----10----10----10-|---10-17-----------|19--------------17-| 
 |-11----11----11----|11-----------------|-------------------| 
 |-------------------|-------------------|-------------------| 
 |-------------------|-------------------|-------------------| 
 |-------------------|-------------------|-------------------| 

 |14-20-14----14(14)-|-------------------|-------------------| 
 |---------17--------|10-10-10-10-10--9-9|-9-9-9--13-13-13-13| 
 |-------------------|11-11-11-11-11--9-9|-9-9-9--13-13-13-13| 
 |-------------------|-------------------|-------------------| 
 |-------------------|-------------------|-------------------| 
 |-------------------|-------------------|-------------------| 

 |-------------------|-------------------|-------------------| 
 |-13-13-10-10-----17|---14-14-13-14-----|------------12-10--| 
 |-13-------11-------|--------------14---|-9-11-11-11--------| 
 |-------------------|----------------16-|-------------------| 
 |-------------------|-------------------|-------------------| 
 |-------------------|-------------------|-------------------| 

 |-------------------|-------------------|-------------------| 
 |-------------------|10-10-10-10-10--9-9|-9-9-9--13-13-13-13| 
 |11-11--------------|11-11-11-11-11--9-9|-9-9-9--13-13-13-13| 
 |------10-11-7------|-------------------|-------------------| 
 |--------------9----|-------------------|-------------------| 
 |-------------------|-------------------|-------------------| 

 |-------------------|-------------------|-------------------| 
 |13-x-13------------|17---14--14-13-14--|-------------------| 
 |13-x---------------|-------------------|14-----------------| 
 |--------12-12------|-------------------|--16--12-----------| 
 |-------------------|-------------------|-------------------| 
 |-------------------|-------------------|-------------------| 

 |-------------------|-------------------|-------------------| 
 |--------------14-16|17-----------------|14-22-24-22--------| 
 |--11-14-16-17------|--17-16-14-14-16-17|-----------17-16-14| 
 |14-----------------|-------------------|-------------------| 
 |-------------------|-------------------|-------------------| 
 |-------------------|-------------------|-------------------| 

 |-------------------| 
 |-------------------| 
 |-------------------| 
 |-16----------------| 
 |-------------------| 
 |-------------------| 

Chorus =  

E|-------------------|-------------------| 
B|-------------------|-------------------| 
G|-------------------|-------------------|(x4) 
D|---4444--7777--2222|22--00000000--2-2--| 
A|---4444--7777--2222|22--00000000--2-2--| 
D|---4444--7777--2222|22--00000000--2-2--| 


The End 

Compartilhe esta música: novo

QR Code
Copiar