Waste My Life

Luna

Tom: D
Drop D tuning 

e|--------------------------| 
B|--------------------------| 
G|--------------------------| 
D|--------------------------| 
A|-----4----4----4----4-----| 
D|---4---4-----4----4-------| 


e|---------------------------------| 
B|---------------------------------| 
G|---------------------------------| 
D|---------------------------------| 
A|-------0-----0-------0------0----| 
D|---0------0------0-------0-------| 

e|---------------------------| 
B|---------------------------| 
G|---------------------------| 
D|---------------------------| 
A|------7----7-----7----7----| 
D|---7-----7-----7----7------| 



e|---------------------------------| 
B|---------------------------------| 
G|---------------------------------| 
D|---------------------------------| 
A|-----2-----2------4---2---0------| 
E|--2-----2-----2------------------| 

repeaat this tab 8 times 

Compartilhe esta música: novo

QR Code
Copiar