Tom: C
 


    C                                      Em 
e|--------------------------------------|--------------------------------------| 
B|--------------------------------------|--------------------------------------| 
G|--------0--------0--------0--------0--|--------0--------0--------0--------0--| 
D|-----2--------2--------2--------2-----|-----2--------2--------2--------2-----| 
A|--3--------3--------3--------3--------|--2--------2--------2--------2--------| 
E|--------------------------------------|--------------------------------------| 

    F                                      G 
e|--------------------------------------|--------------------------------------| 
B|--------------------------------------|--------------------------------------| 
G|--------2--------2--------2--------2--|--------------------------------------| 
D|-----3--------3--------3--------3-----|--------0--------0--------0--------0--| 
A|--3--------3--------3--------3--------|-----2--------2--------2--------2-----| 
E|--------------------------------------|--3--------3--------3--------3--------| 


I'm sorry, but my heart, doesn't know well enough, to leave you alone 
    C                                      Em 
e|--------------------------------------|--------------------------------------| 
B|--------------------------------------|--------------------------------------| 
G|--------0--------0--------0--------0--|--------0--------0--------0--------0--| 
D|-----2--------2--------2--------2-----|-----2--------2--------2--------2-----| 
A|--3--------3--------3--------3--------|--2--------2--------2--------2--------| 
E|--------------------------------------|--------------------------------------| 

    F                                      G 
e|--------------------------------------|--------------------------------------| 
B|--------------------------------------|--------------------------------------| 
G|--------2--------2--------2--------2--|--------------------------------------| 
D|-----3--------3--------3--------3-----|--------0--------0--------0--------0--| 
A|--3--------3--------3--------3--------|-----2--------2--------2--------2-----| 
E|--------------------------------------|--3--------3--------3--------3--------| 


I'm sorry, but my heart, doesn't know well enough, to leave you alone 
    C                                      Em 
e|--------------------------------------|--------------------------------------| 
B|--------------------------------------|--------------------------------------| 
G|--------0--------0--------0--------0--|--------0--------0--------0--------0--| 
D|-----2--------2--------2--------2-----|-----2--------2--------2--------2-----| 
A|--3--------3--------3--------3--------|--2--------2--------2--------2--------| 
E|--------------------------------------|--------------------------------------| 

    F                                      Am 
e|--------------------------------------|--------------------------------------| 
B|--------------------------------------|--------------------------------------| 
G|--------2--------2--------2--------2--|--------2--------2--------2--------2--| 
D|-----3--------3--------3--------3-----|-----2--------2--------2--------2-----| 
A|--3--------3--------3--------3--------|--0--------0--------0--------0--------| 
E|--------------------------------------|--------------------------------------| 


and my hands, won't stay where they are, feels like you've been gone, ten times as long 
    C                                      Em 
e|--------------------------------------|--------------------------------------| 
B|--------------------------------------|--------------------------------------| 
G|--------0--------0--------0--------0--|--------0--------0--------0--------0--| 
D|-----2--------2--------2--------2-----|-----2--------2--------2--------2-----| 
A|--3--------3--------3--------3--------|--2--------2--------2--------2--------| 
E|--------------------------------------|--------------------------------------| 

    F                                      G 
e|--------------------------------------|--------------------------------------| 
B|--------------------------------------|--------------------------------------| 
G|--------2--------2--------2--------2--|--------------------------------------| 
D|-----3--------3--------3--------3-----|--------0--------0--------0-----0-----| 
A|--3--------3--------3--------3--------|-----2--------2--------2-----2--------| 
E|--------------------------------------|--3--------3--------3--------------3--| 


feels like fate, holds us apart but wait, don't let your heart yet break, there's still a way 
    Em                                     F 
e|--------------------------------------|--------------------------------------| 
B|--------------------------------------|--------------------------------------| 
G|--------0--------0--------0--------0--|--------2--------2--------2--------2--| 
D|-----2--------2--------2--------2-----|-----3--------3--------3--------3-----| 
A|--2--------2--------2--------2--------|--3--------3--------3--------3--------| 
E|--------------------------------------|--------------------------------------| 

    C                                      Em 
e|--------------------------------------|--------------------------------------| 
B|--------------------------------------|--------------------------------------| 
G|--------0--------0--------0--------0--|--------0--------0--------0--------0--| 
D|-----2--------2--------2--------2-----|-----2--------2--------2--------2-----| 
A|--3--------3--------3--------3--------|--2--------2--------2--------2--------| 
E|--------------------------------------|--------------------------------------| 


a way? didn't I say, say that I found it, already? 
    G                                     F 
e|--------------------------------------|--------------------------------------| 
B|--------------------------------------|--------------------------------------| 
G|--------0--------0--------0--------0--|--------2--------2--------2--------2--| 
D|-----0--------0--------0--------0-----|-----3--------3--------3--------3-----| 
A|--2--------2--------2--------2--------|--3--------3--------3--------3--------| 
E|--------------------------------------|--------------------------------------| 

    C                                      G 
e|--------------------------------------|--------------------------------------| 
B|--------------------------------------|--------------------------------------| 
G|--------0--------0--------0--------0--|--------0--------0--------0--------0--| 
D|-----2--------2--------2--------2-----|-----0--------0--------0--------0-----| 
A|--3--------3--------3--------3--------|--2--------2--------2--------2--------| 
E|--------------------------------------|--------------------------------------| 


ready or not, this is what we have got, no need to fall apart, push it away 
    Em                                     F 
e|--------------------------------------|--------------------------------------| 
B|--------------------------------------|--------------------------------------| 
G|--------0--------0--------0--------0--|--------2--------2--------2--------2--| 
D|-----2--------2--------2--------2-----|-----3--------3--------3--------3-----| 
A|--2--------2--------2--------2--------|--3--------3--------3--------3--------| 
E|--------------------------------------|--------------------------------------| 

    C                                      Em 
e|--------------------------------------|--------------------------------------| 
B|--------------------------------------|--------------------------------------| 
G|--------0--------0--------0--------0--|--------0--------0--------0--------0--| 
D|-----2--------2--------2--------2-----|-----2--------2--------2--------2-----| 
A|--3--------3--------3--------3--------|--2--------2--------2--------2--------| 
E|--------------------------------------|--------------------------------------| 


away down there, where I don't have to care, seemed like the perfect pair, so far away 
    Em                                     F 
e|--------------------------------------|--------------------------------------| 
B|--------------------------------------|--------------------------------------| 
G|--------0--------0--------0--------0--|--------2--------2--------2--------2--| 
D|-----2--------2--------2--------2-----|-----3--------3--------3--------3-----| 
A|--2--------2--------2--------2--------|--3--------3--------3--------3--------| 
E|--------------------------------------|--------------------------------------| 

    C                                      Em 
e|--------------------------------------|--------------------------------------| 
B|--------------------------------------|--------------------------------------| 
G|--------0--------0--------0--------0--|--------0--------0--------0--------0--| 
D|-----2--------2--------2--------2-----|-----2--------2--------2--------2-----| 
A|--3--------3--------3--------3--------|--2--------2--------2--------2--------| 
E|--------------------------------------|--------------------------------------| 


Solo Part 
    C                                      Em 
e|--------------------------------------|--------------------------------------| 
B|--------------------------------------|--------------------------------------| 
G|--------0--------0--------0--------0--|--------0--------0--------0--------0--| 
D|-----2--------2--------2--------2-----|-----2--------2--------2--------2-----| 
A|--3--------3--------3--------3--------|--2--------2--------2--------2--------| 
E|--------------------------------------|--------------------------------------| 

    F                                      G 
e|--------------------------------------|--------------------------------------| 
B|--------------------------------------|--------------------------------------| 
G|--------2--------2--------2--------2--|--------------------------------------| 
D|-----3--------3--------3--------3-----|--------0--------0--------0--------0--| 
A|--3--------3--------3--------3--------|-----2--------2--------2--------2-----| 
E|--------------------------------------|--3--------3--------3--------3--------| 


love, i may be wrong, it seems that you say this to string me along 
    C                                      Em 
e|--------------------------------------|--------------------------------------| 
B|--------------------------------------|--------------------------------------| 
G|--------0--------0--------0--------0--|--------0--------0--------0--------0--| 
D|-----2--------2--------2--------2-----|-----2--------2--------2--------2-----| 
A|--3--------3--------3--------3--------|--2--------2--------2--------2--------| 
E|--------------------------------------|--------------------------------------| 

    F                                      G 
e|--------------------------------------|--------------------------------------| 
B|--------------------------------------|--------------------------------------| 
G|--------2--------2--------2--------2--|--------------------------------------| 
D|-----3--------3--------3--------3-----|--------0--------0--------0--------0--| 
A|--3--------3--------3--------3--------|-----2--------2--------2--------2-----| 
E|--------------------------------------|--3--------3--------3--------3--------| 


love, i may be wrong, it seems that you say this to string me along 
    C                                      Em 
e|--------------------------------------|--------------------------------------| 
B|--------------------------------------|--------------------------------------| 
G|--------0--------0--------0--------0--|--------0--------0--------0--------0--| 
D|-----2--------2--------2--------2-----|-----2--------2--------2--------2-----| 
A|--3--------3--------3--------3--------|--2--------2--------2--------2--------| 
E|--------------------------------------|--------------------------------------| 

    F                                      Am 
e|--------------------------------------|--------------------------------------| 
B|--------------------------------------|--------------------------------------| 
G|--------2--------2--------2--------2--|--------2--------2--------2--------2--| 
D|-----3--------3--------3--------3-----|-----2--------2--------2--------2-----| 
A|--3--------3--------3--------3--------|--0--------0--------0--------0--------| 
E|--------------------------------------|--------------------------------------| 


still my heart, and the place where you are, shouldn't be far, i'll make sure 
    C                                      Em 
e|--------------------------------------|--------------------------------------| 
B|--------------------------------------|--------------------------------------| 
G|--------0--------0--------0--------0--|--------0--------0--------0--------0--| 
D|-----2--------2--------2--------2-----|-----2--------2--------2--------2-----| 
A|--3--------3--------3--------3--------|--2--------2--------2--------2--------| 
E|--------------------------------------|--------------------------------------| 

    F                                      G 
e|--------------------------------------|--------------------------------------| 
B|--------------------------------------|--------------------------------------| 
G|--------2--------2--------2--------2--|--------------------------------------| 
D|-----3--------3--------3--------3-----|--------0--------0--------0-----0-----| 
A|--3--------3--------3--------3--------|-----2--------2--------2-----2--------| 
E|--------------------------------------|--3--------3--------3--------------3--| 


feels like fate, holds us apart but wait, don't let your heart yet break, there's still a way 
    Em                                     F 
e|--------------------------------------|--------------------------------------| 
B|--------------------------------------|--------------------------------------| 
G|--------0--------0--------0--------0--|--------2--------2--------2--------2--| 
D|-----2--------2--------2--------2-----|-----3--------3--------3--------3-----| 
A|--2--------2--------2--------2--------|--3--------3--------3--------3--------| 
E|--------------------------------------|--------------------------------------| 

    C                                      Em 
e|--------------------------------------|--------------------------------------| 
B|--------------------------------------|--------------------------------------| 
G|--------0--------0--------0--------0--|--------0--------0--------0--------0--| 
D|-----2--------2--------2--------2-----|-----2--------2--------2--------2-----| 
A|--3--------3--------3--------3--------|--2--------2--------2--------2--------| 
E|--------------------------------------|--------------------------------------| 


a way? didn't I say, say that I found it, already? 
    G                                     F 
e|--------------------------------------|--------------------------------------| 
B|--------------------------------------|--------------------------------------| 
G|--------0--------0--------0--------0--|--------2--------2--------2--------2--| 
D|-----0--------0--------0--------0-----|-----3--------3--------3--------3-----| 
A|--2--------2--------2--------2--------|--3--------3--------3--------3--------| 
E|--------------------------------------|--------------------------------------| 

    C                                      G 
e|--------------------------------------|--------------------------------------| 
B|--------------------------------------|--------------------------------------| 
G|--------0--------0--------0--------0--|--------0--------0--------0--------0--| 
D|-----2--------2--------2--------2-----|-----0--------0--------0--------0-----| 
A|--3--------3--------3--------3--------|--2--------2--------2--------2--------| 
E|--------------------------------------|--------------------------------------| 


ready or not, this is what we have got, no need to fall apart, push it away 
    Em                                     F 
e|--------------------------------------|--------------------------------------| 
B|--------------------------------------|--------------------------------------| 
G|--------0--------0--------0--------0--|--------2--------2--------2--------2--| 
D|-----2--------2--------2--------2-----|-----3--------3--------3--------3-----| 
A|--2--------2--------2--------2--------|--3--------3--------3--------3--------| 
E|--------------------------------------|--------------------------------------| 

    C                                      Em 
e|--------------------------------------|--------------------------------------| 
B|--------------------------------------|--------------------------------------| 
G|--------0--------0--------0--------0--|--------0--------0--------0--------0--| 
D|-----2--------2--------2--------2-----|-----2--------2--------2--------2-----| 
A|--3--------3--------3--------3--------|--2--------2--------2--------2--------| 
E|--------------------------------------|--------------------------------------| 


away down there, where I don't have to care, seemed like the perfect pair, so far away 
    Em                                     F 
e|--------------------------------------|--------------------------------------| 
B|--------------------------------------|--------------------------------------| 
G|--------0--------0--------0--------0--|--------2--------2--------2--------2--| 
D|-----2--------2--------2--------2-----|-----3--------3--------3--------3-----| 
A|--2--------2--------2--------2--------|--3--------3--------3--------3--------| 
E|--------------------------------------|--------------------------------------| 

    C                                      Em 
e|--------------------------------------|--------------------------------------| 
B|--------------------------------------|--------------------------------------| 
G|--------0--------0--------0--------0--|--------0--------0--------0--------0--| 
D|-----2--------2--------2--------2-----|-----2--------2--------2--------2-----| 
A|--3--------3--------3--------3--------|--2--------2--------2--------2--------| 
E|--------------------------------------|--------------------------------------| 


Outro 
    Em                                     F 
e|--------------------------------------|--------------------------------------| 
B|--------------------------------------|--------------------------------------| 
G|--------0--------0--------0--------0--|--------2--------2--------2--------2--| 
D|-----2--------2--------2--------2-----|-----3--------3--------3--------3-----| 
A|--2--------2--------2--------2--------|--3--------3--------3--------3--------| 
E|--------------------------------------|--------------------------------------| 

    C                                      Em 
e|--------------------------------------|--------------------------------------| 
B|--------------------------------------|--------------------------------------| 
G|--------0--------0--------0--------0--|--------0--------0--------0--------0--| 
D|-----2--------2--------2--------2-----|-----2--------2--------2--------2-----| 
A|--3--------3--------3--------3--------|--2--------2--------2--------2--------| 
E|--------------------------------------|--------------------------------------| x3 & Fade Out 

Compartilhe esta música: novo

QR Code
Copiar