Último Romance

Los Hermanos

Tom: Am
Interpretação / Transcrição: Eduardo Marx  
 
INTRO e 1ª parte 
 
(eu encontrei...) 
Guit.1 
Eb|------------------12-----(12)~~~~~~~~~~-------------------------------------------------------- 
Bb|---13p--10---------------------------------------------------------------------------------------------- 
Gb|---------------------------------------------------------junto com a guit.2------------------------- 
Db|------------------------------------------------------------------------------------------------------------ 
Ab|------------------------------------------------------------------------------------------------------------ 
Eb|------------------------------------------------------------------------------------------------------------ 
 
Guit.2 
Eb|----8----------------------------------------8---8----8-------------------------------------------------- 
Bb|---10-------------10---------------------10--10--10----------7--7--7---8p7---------------------- 
Gb|----9--------------9----------------------(9)--(9)--(9)---------7--7----------------------------------- 
Db|----7--------------7----------------------------------------------7--------------------------------------- 
Ab|------------------------------------------------------------------------------------------------------------ 
Eb|------------------------------------------------------------------------------------------------------------ 
 
Eb|----8---------------------------------8--7---------------------------------------------------------------- 
Bb|---10-------------10-----------------------10--8--7--7h8--7---------------------------------------- 
Gb|----9--------------9---------------------------------7--7------------------------------------------------ 
Db|----7--------------7--------------------------------------------------------------------------------------- 
Ab|------------------------------------------------------------------------------------------------------------ 
Eb|------------------------------------------------------------------------------------------------------------ 
 
Eb|----8---------------------------------8--7---------------------------------------------------------------- 
Bb|---10-------------10-----------------------10--8--7---7-7--8\10-8--------------------------------- 
Gb|----9--------------9---------------------------------7---7-7-------------------------------------------- 
Db|----7--------------7--------------------------------------------------------------------------------------- 
Ab|------------------------------------------------------------------------------------------------------------ 
Eb|------------------------------------------------------------------------------------------------------------ 
 
Guit.1 
Eb|--10------10-------(10)----------x-x---10---10------------10--10---x--------------------------- 
Bb|----8-------8--------(8)-----------x-x----9-----9--------------9---9----x---------------------------- 
Gb|--------------------------------------------10---10------------10--10---x---------------------------- 
Db|------------------------------------------------------------------------------------------------------------ 
Ab|------------------------------------------------------------------------------------------------------------ 
Eb|------------------------------------------------------------------------------------------------------------ 
 
Guit.2  
Eb|--10------10-------10-10-10---x------10---10-------10--10--10---x-------------------------- 
Bb|---8--------8--------8---8---8---x-------9-----9---------9---9----9----x--------------------------- 
Gb|---7--------7--------7---7---7---x------10---10-------10--10--10---x--------------------------- 
Db|---9--------9------------------------------9-----9------------------------------------------------------- 
Ab|------------------------------------------------------------------------------------------------------------ 
Eb|------------------------------------------------------------------------------------------------------------ 
 
(até quem me ver...) 
Guit.1    
Eb|------------------------------------------------------------------------------------------------------------ 
Bb|------------------------------------------------------------------------------------------------------------ 
Gb|------------------------------------------------------------------------------------------------------------ 
Db|------7-----------5/-----------------0-----------------------------7-----------5/----------0---0------- 
Ab|------------------------------------------------------------------------------------------------------------ 
Eb|------------------------------------------------------------------------------------------------------------ 
 
Guit.2 
Eb|----8---8------8--8----x--x--------7---7----7--7--7--x---------------------------------------------- 
Bb|---10--10---10-10---x--x--------7---7----7--7--7--x---------------------------------------------- 
Gb|----9---9------9--9---x--x--------7---7----7--7--7--x--------(segue...)-------------------------- 
Db|----7---7------7--7---x--x--------7---7----7--7--7--x----------------------------------------------- 
Ab|------------------------------------------------------------------------------------------------------------ 
Eb|------------------------------------------------------------------------------------------------------------ 
 
Guit. 1						 
Eb|------------------------------------------------------------------------------------------------------------ 
Bb|------------------------------------------------------------------------------------------------------------ 
Gb|------------------------------------------------------------------------------------------------------------ 
Db|-----5----------------(5)------------------6----------------(6)------------------------------------------ 
Ab|------------------------------------------------------------------------------------------------------------ 
Eb|------------------------------------------------------------------------------------------------------------ 
 
Guit.2  
Eb|--10------10-------10-10-10---x------10---10-------10--10--10---x---------------------------- 
Bb|---8--------8--------8---8---8---x-------9-----9---------9---9----9----x----------------------------- 
Gb|---7--------7--------7---7---7---x------10---10-------10--10--10---x----------------------------- 
Db|---9--------9------------------------------9-----9------------------------------------------------------- 
Ab|------------------------------------------------------------------------------------------------------------- 
Eb|------------------------------------------------------------------------------------------------------------ 
 
                 ...E ninguém dirá que é tarde demais,   que é tão diferente assim 
Eb|------------------------------------------------------------------------------------------------------------ 
Bb|--8--------------8---------8-------------8-------------8--------------8-------7------------------------ 
Gb|--9--------------9---------9-------------9-------------8--------------7-------7------------------------- 
Db|-10--------------9---------7-------------7-------------9--------------9-------7----------------------- 
Ab|--10------------10---------7------------10------------9--------------7-------7----------------------- 
Eb|------------------------------------------------------------------------------------------------------------ 
 
 
 
                   Do nosso amor a gente é que sabe...                   (ahhh vaaai) 
Eb|------------------------------------------------------------------------------------------------------------- 
Bb|--8--------------8---------8-------------8-------------8------------7----------------------------------- 
Gb|--9--------------9---------9-------------9-------------8------------8----------------------------------- 
Db|-10--------------9---------7-------------7-------------9------------7----------------------------------- 
Ab|--10------------10---------7------------10------------9------------9---------------------------------- 
Eb|------------------------------------------------------------------------------------------------------------ 
 
	Me diz o que é o sufoco que eu te mostro alguém afim de te acompanhar... 
Eb|------------------------------------------------------------------------------------------------------------ 
Bb|---------8------------8---------8--------8---------8--------8---------8------------8------------------- 
Gb|---------9------------7---------9--------9---------9--------7---------9------------9------------------- 
Db|---------9------------9---------7--------7---------9--------9---------7------------7------------------- 
Ab|---------7-----------10---------7-------10--------7-------10--------7-----------10------------------ 
Eb|------------------------------------------------------------------------------------------------------------- 
 
	               ...E se o caso for de ir à praia eu levo essa casa numa sacola 
Eb|---------------------------------------------------------------------------------------------------------- 
Bb|---------8------------8------------8-------------8---------8-------------8---------8--------8-------- 
Gb|---------9------------7------------9-------------9---------9-------------7---------9--------9-------- 
Db|---------9------------9------------7-------------7---------9-------------9---------7--------7-------- 
Ab|---------7-----------10------------7------------10--------7------------10--------7-------10------- 
Eb|---------------------------------------------------------------------------------------------------------- 
 
Eduardo Marques ([email protected]) 
 

Compartilhe esta música: novo

QR Code
Copiar