Sexy And I Know It

LMFAO

Intro 

e|-------------------------| 
B|-------------------------| 
G|-------------------------| 
D|-------------------------| 
A|-------1--3-------1--3---| 
E|---3---------3--3------3-| 


Chorus 1 

e|---------------------------------------------------| 
B|---------------------------------------------------| 
G|---------------------------------------------------| 
D|-------------------------------3/5-------------3/5-| 
A|-----1-3-----1-3-----1-3-------------1-3-----------| 
E|---3-----3-3-----3-3-----3-3-3-----3-----3-3-3-----| 


Chorus 2 


e|------------------13/15------------------13/15-------------| 
B|----11-13------------------11-13---------------------11-13-| 
G|-12-------12-12---10/12-12-------12-12---10/12----12-------| 
D|-----------------------------------------------------------| 
A|-----------------------------------------------------------| 
E|-----------------------------------------------------------| 

Compartilhe esta música: novo

QR Code
Copiar