Crystallize

Lindsey Stirling


E |-13/15---13-12-13-------------12-13-15/17-15-------12-13-15--12--10--| 
B |------------------15-------15----------------------------------------| 
G |---------------------------------------------------------------------| 
D |---------------------------------------------------------------------| 
A |---------------------------------------------------------------------| 
E |---------------------------------------------------------------------| 

E |------------------------------------------------------------------------| 
B |---10/6---------6/8--6-5-6-------6--8--6-5-6-/10---6--8---5-6-8--5------| 
G |--------7---7--------------7---7-----------------------------------7----| 
D |----------7------------------7------------------------------------------| 
A |------------------------------------------------------------------------| 
E |------------------------------------------------------------------------| 


E |---------------10--12--13---13-12-13-10/5--10----------------10--12---13--15--15/17-| 
B |----5--6--/10-----------------------------------10----10---10--10---10--10----------| 
G |---------------------------------------------------10-------------------------------| 
D |------------------------------------------------------------------------------------| 
A |------------------------------------------------------------------------------------| 
E |------------------------------------------------------------------------------------| 

E |-----15-17-13--12--13------13-10------------10---15-12------------------------------------12------| 
B |-------------------------------------------------------13---------------------------13-------13---| 
G |---------------------------------14-10--14----------------12---------12-------12-------12---------| 
D |-------------------------------------------------------------14---14----14-------14---------------| 
A |----------------------------------------------------------------15---------15---------------------| 
E |--------------------------------------------------------------------------------------------------| 

E |---13-12-10----------------------------------10------10--------------| 
B |---------------------------------------10-------10-------10----------| 
G |------------14-10-------------------------10-----------------10--9---| 
D |------------------14-12-14-12----12-14-------------------------------| 
A |------------------------------13-------------------------------------| 
E |---------------------------------------------------------------------| 

E |---------------------------10----13-10-17-13-22--| 
B |---------------------10-------10-----------------| 
G |------------------10----10-----------------------| 
D |--------12----12---------------------------------| 
A |-----------12------------------------------------| 
E |-------------------------------------------------| 

                                        X2 
 
                                                                                       | 
E |--17-13----------------13-------------15---17-13----------------13-------------15---| 
B |--------15----------15----15--17--18-------------15----------15----15--17--18-------| 
G |-----------14----14---------14--14--14--------------14----14---------14--14--14-----| 
D |--------------15---------------------------------------15---------------------------| 
A |------------------------------------------------------------------------------------| 
E |------------------------------------------------------------------------------------| 
                                                                                                     | 
E |-15-12-------------------------------------12-----13-12-10----------------------------------10----| 
B |-------13----------------------------13-------13--------------------------------------10-------10-| 
G |----------12----------12-------12-------12-----------------14-10-------------------------10-------| 
D |-------------14----14----14-------14-----------------------------14-12-14-12----12-14-------------| 
A |----------------15----------15-----------------------------------------------13-------------------| 
E |--------------------------------------------------------------------------------------------------| 
| 


E |--------------------------------------13-17/20--20/22-18-17-15--15-15-17--18--17----| 
B |--6/8-6-5-6---6/8---8/10-9-9----13-15-----------------------------------------------| 
G |------------7-----7-----------------------------------------------------------------| 
D |------------------------------------------------------------------------------------| 
A |------------------------------------------------------------------------------------| 
E |------------------------------------------------------------------------------------| 

E |-17-13----------------13---15--12------12--15-12----------------12--13--12--10--------------------| 
B |-------15----------15--------------13------------13----------13-----------------------------------| 
G |----------14----14----------------------------------12----12-------------------14-10--------------| 
D |-------------15----------------------------------------14----------------------------14-12/15--/12| 
A |--------------------------------------------------------------------------------------------------| 
E |--------------------------------------------------------------------------------------------------| 

E |------------------------------10--12--13-12-10/5--| 
B |----------------------10--------------------------| 
G |--10/12--10-9-10----------------------------------| 
D |------------------12------------------------------| 
A |--------------------------------------------------| 
E |--------------------------------------------------| 

E |-------------------------------------------------------------------10-12-15--| 
B |---6/8--6-5-6-------6--8--6-5-6-/10---6--8---5-6-8--5-------5-6-10-----------| 
G |--------------7---7-----------------------------------7---7------------------| 
D |----------------7---------------------------------------7--------------------| 
A |-----------------------------------------------------------------------------| 
E |-----------------------------------------------------------------------------| 

E |-12p13h12-10---10--12--13--15--13------15--------17/20-17-20-15---12-13-15-12--10---10------------| 
B |-----------------10--10--10--10------15-------15--------------------------------------------------| 
G |-----------------------------------14-------14-----------------------------------------14-10------| 
D |---------------------------------15-------15-------------------------------------------------14-12| 
A |--------------------------------------------------------------------------------------------------| 
E |--------------------------------------------------------------------------------------------------| 


E |-10--------------13p15h13-----13-12-10--10-----10-12-10----10--12--13--15--15/17---15-17-13--12-13| 
B |---------------------------10---------------10---------------10--10--10--10-----------------------| 
G |----14-10-----------------------------------------------------------------------------------------| 
D |----------14-12-----------------------------------------------------------------------------------| 
A |--------------------------------------------------------------------------------------------------| 
E |--------------------------------------------------------------------------------------------------| 

E |---------10--12--13--12-13-15-12------------------------------------12------| 
B |-----------10--10--10------------13---------------------------13-------13---| 
G |------------------------------------12---------12-------12-------12---------| 
D |---------------------------------------14---14----14-------14---------------| 
A |------------------------------------------15---------15---------------------| 
E |----------------------------------------------------------------------------| 

E |---13-12-10----------------------------------10------10---| 
B |---------------------------------------10-------10--------| 
G |------------14-10-------------------------10--------------| 
D |------------------14-12-14-12----12-14--------------------| 
A |------------------------------13--------------------------| 
E |----------------------------------------------------------| 

E |--13/15---13-12-13----------13---13/15---13-12-13-15/17---13-15-------| 
B |-------------------15----15-------------------------------------------| 
G |----------------------14----------------------------------------------| 
D |----------------------------------------------------------------------| 
A |----------------------------------------------------------------------| 
E |----------------------------------------------------------------------| 

           I guitar                  II guitar 

E |-15---12-13-15---12---10-|------20---------22------| 
B |-------------------------|-------------------------| 
G |-------------------------|-------------------------| 
D |-------------------------|-------------------------| 
A |-------------------------|-------------------------| 
E |-------------------------|-------------------------| 

                                        X2 
 
                                                                                       | 
E |--17-13----------------13-------------15---17-13----------------13-------------15---| 
B |--------15----------15----15--17--18-------------15----------15----15--17--18-------| 
G |-----------14----14---------14--14--14--------------14----14---------14--14--14-----| 
D |--------------15---------------------------------------15---------------------------| 
A |------------------------------------------------------------------------------------| 
E |------------------------------------------------------------------------------------| 
                                                                                                     | 
E |-15-12-------------------------------------12-----13-12-10----------------------------------10----| 
B |-------13----------------------------13-------13--------------------------------------10-------10-| 
G |----------12----------12-------12-------12-----------------14-10-------------------------10-------| 
D |-------------14----14----14-------14-----------------------------14-12-14-12----12-14-------------| 
A |----------------15----------15-----------------------------------------------13-------------------| 
E |--------------------------------------------------------------------------------------------------| 
| 

E |--------------------------------------13-17/20--20/22-18-17-15--15-15-17--18--17----| 
B |--6/8-6-5-6---6/8---8/10-9-9----13-15-----------------------------------------------| 
G |------------7-----7-----------------------------------------------------------------| 
D |------------------------------------------------------------------------------------| 
A |------------------------------------------------------------------------------------| 
E |------------------------------------------------------------------------------------| 

E |--17-13----------------13---15--12------12--15-12----------------12--13--12--10--| 
B |--------15----------15--------------13------------13----------13-----------------| 
G |-----------14----14----------------------------------12----12--------------------| 
D |--------------15----------------------------------------14-----------------------| 
A |---------------------------------------------------------------------------------| 
E |---------------------------------------------------------------------------------| 


E |-------------------------------------------------------10--12--13-12-10/5--| 
B |-----------------------------------------------10--------------------------| 
G |-14-10---------------------10/12--10-9-10----------------------------------| 
D |--------14-12/15--/12----------------------12------------------------------| 
A |---------------------------------------------------------------------------| 
E |---------------------------------------------------------------------------| 

E |--------------------------------------------------------------| 
B |---6/8--6-5-6-------6--8--6-5-6-/10---6--8---5-6-8--5---------| 
G |--------------7---7-----------------------------------7-------| 
D |----------------7---------------------------------------------| 
A |--------------------------------------------------------------| 
E |--------------------------------------------------------------| 

Compartilhe esta música: novo

QR Code
Copiar