Tom: D
-drop D 

  Intro 
E |----------------|--0-----3-------|--5--------7s---|--5--0-----0----| 
B |--1-----3-------|----------------|----------------|--------3-------| 
G |-----2-----2----|-----2-----2----|----------------|----------------| 
D |----------------|----------------|--0-----0-------|----------------| 
A |--0-----0-------|--0-----0-------|-----0----------|----------------| 
D |----------------|----------------|--3-------------|----------------| 

----------------|--0-------------|----------------|----------------| 
-----------3----|-----3----------|-----------3----|-----------0----| 
--------0-------|--------0-------|--------0-------|--------0-------| 
-----2----------|-----------2----|-----2----------|-----0----------| 
--3-------------|----------------|--3-------------|--2-------------| 
----------------|----------------|----------------|----------------| 

----------------|--0-------------|------------------------|----------------| 
--1-----3-------|--------3-------|--------------3-----1---|--------3--1----| 
-----2-----2----|-----2-----2----|-----------2------------|-----2----------| 
----------------|----------------|------------------------|----------------| 
--0-----0-------|--0-----0-------|--------0---------------|--3-------------| 
----------------|----------------|--3---------------------|----------------| 

----------------|--0-------------|----------------|----------------| 
-----------3----|-----3----------|-----------3----|-----------0----| 
--------0-------|--------0-------|--------0-------|--------0-------| 
-----2----------|-----------2----|-----2----------|-----0----------| 
--3-------------|----------------|--3-------------|--2-------------| 
----------------|----------------|----------------|----------------| 


|----------------|--0-----3-------|--5--------7s---|--5--0-----0----| 
|--1-----3-------|----------------|----------------|--------3-------| 
|-----2-----2----|-----2-----2----|----------------|----------------| 
|----------------|----------------|--0-----0-------|----------------| 
|--0-----0-------|--0-----0-------|-----0----------|----------------| 
|----------------|----------------|--3-------------|----------------| 

----------------|--0-------------|----------------|----------------| 
-----------3----|-----3----------|-----------3----|-----------0----| 
--------0-------|--------0-------|--------0-------|--------0-------| 
-----2----------|-----------2----|-----2----------|-----0----------| 
--3-------------|----------------|--3-------------|--2-------------| 
----------------|----------------|----------------|----------------| 

----------------|--0-------------|------------------------|----------------| 
--1-----3-------|--------3-------|--------------3-----1---|--------3--1----| 
-----2-----2----|-----2-----2----|-----------2------------|-----2----------| 
----------------|----------------|------------------------|----------------| 
--0-----0-------|--0-----0-------|--------0---------------|--3-------------| 
----------------|----------------|--3---------------------|----------------| 


----------------|--0-------------|----------------------------|------------------| 
-----------3----|-----3----------|----------------------------|------------------| 
--------0-------|--------0-------|----------------------------|------------------| 
-----2----------|-----------2----|--2s-3s-2-----0-------------|-----0------------| 
--3-------------|----------------|--------------------3-------|--------3s-0------| 
----------------|----------------|----------------------------|------------------| 

  verse 1 
----------------|----------------|----------------|----------------| 
--1-----1-------|--1-----1-------|--0-----0-------|--0-----0-------| 
-----2-----2----|-----2-----2----|-----0-----0----|-----0-----0----| 
----------------|----------------|----------------|----------------| 
--0-----0-------|--0-----0-------|----------------|----------------| 
----------------|----------------|--3-----3-------|--3-----3-------| 


----------------|----------------|----------------|----------------| 
--1-----1-------|--1-----1-------|--0-----0-------|--0-----0-------| 
-----0-----0----|-----0-----0----|-----0-----0----|-----0-----0----| 
----------------|----------------|----------------|----------------|  X 4 
--3-----3-------|--3-----3-------|--2-----2-------|--2-----2-------| 
----------------|----------------|----------------|----------------| 

  Chorus 1 
|----------------|--0-----3-------|--5--------7s---|--5--0-----0----| 
|--1-----3-------|----------------|----------------|--------3-------| 
|-----2-----2----|-----2-----2----|----------------|----------------| 
|----------------|----------------|--0-----0-------|----------------| 
|--0-----0-------|--0-----0-------|-----0----------|----------------| 
|----------------|----------------|--3-------------|----------------| 

----------------|--0-------------|----------------|----------------| 
-----------3----|-----3----------|-----------3----|-----------0----| 
--------0-------|--------0-------|--------0-------|--------0-------| 
-----2----------|-----------2----|-----2----------|-----0----------| 
--3-------------|----------------|--3-------------|--2-------------| 
----------------|----------------|----------------|----------------| 

----------------|--0-------------|------------------------|----------------| 
--1-----3-------|--------3-------|--------------3-----1---|--------3--1----| 
-----2-----2----|-----2-----2----|-----------2------------|-----2----------| 
----------------|----------------|------------------------|----------------| 
--0-----0-------|--0-----0-------|--------0---------------|--3-------------| 
----------------|----------------|--3---------------------|----------------| 

----------------|--0-------------|----------------|----------------| 
-----------3----|-----3----------|-----------3----|-----------0----| 
--------0-------|--------0-------|--------0-------|--------0-------| X2 
-----2----------|-----------2----|-----2----------|-----0----------| 
--3-------------|----------------|--3-------------|--2-------------| 
----------------|----------------|----------------|----------------| 

verse 2 

----------------|----------------|----------------|----------------| 
--1-----1-------|--1-----1-------|--0-----0-------|--0-----0-------| 
-----2-----2----|-----2-----2----|-----0-----0----|-----0-----0----| 
----------------|----------------|----------------|----------------| 
--0-----0-------|--0-----0-------|----------------|----------------| 
----------------|----------------|--3-----3-------|--3-----3-------| 


----------------|----------------|----------------|----------------| 
--1-----1-------|--1-----1-------|--0-----0-------|--0-----0-------| 
-----0-----0----|-----0-----0----|-----0-----0----|-----0-----0----| 
----------------|----------------|----------------|----------------| 
--3-----3-------|--3-----3-------|--2-----2-------|--2-----2-------| 
----------------|----------------|----------------|----------------| 

----------------|----------------|----------------|----------------| 
--1-----1-------|--1-----1-------|--0-----0-------|--0-----0-------| 
-----2-----2----|-----2-----2----|-----0-----0----|-----0-----0----| 
----------------|----------------|----------------|----------------| 
--0-----0-------|--0-----0-------|----------------|----------------| 
----------------|----------------|--3-----3-------|--3-----3-------| 

----------------|----------------|-------| 
--1-----1-------|--1-----1-------|--0----| 
-----0-----0----|-----0-----0----|-------| 
----------------|----------------|-------| 
--3-----3-------|--3-----3-------|--2----| 
----------------|----------------|-------| 

Chorus 2 

|----------------|--0-----3-------|--5--------7s---|--5--0-----0----| 
|--1-----3-------|----------------|----------------|--------3-------| 
|-----2-----2----|-----2-----2----|----------------|----------------| 
|----------------|----------------|--0-----0-------|----------------| 
|--0-----0-------|--0-----0-------|-----0----------|----------------| 
|----------------|----------------|--3-------------|----------------| 

----------------|--0-------------|----------------|----------------| 
-----------3----|-----3----------|-----------3----|-----------0----| 
--------0-------|--------0-------|--------0-------|--------0-------| 
-----2----------|-----------2----|-----2----------|-----0----------| 
--3-------------|----------------|--3-------------|--2-------------| 
----------------|----------------|----------------|----------------| 

----------------|--0-------------|------------------------|----------------| 
--1-----3-------|--------3-------|--------------3-----1---|--------3--1----| 
-----2-----2----|-----2-----2----|-----------2------------|-----2----------| 
----------------|----------------|------------------------|----------------| 
--0-----0-------|--0-----0-------|--------0---------------|--3-------------| 
----------------|----------------|--3---------------------|----------------| 

----------------|--0-------------|----------------|----------------| 
-----------3----|-----3----------|-----------3----|-----------0----| 
--------0-------|--------0-------|--------0-------|--------0-------| 
-----2----------|-----------2----|-----2----------|-----0----------| 
--3-------------|----------------|--3-------------|--2-------------| 
----------------|----------------|----------------|----------------| 

|----------------|--0-----3-------|--5--------7s---|--5--0-----0----| 
|--1-----3-------|----------------|----------------|--------3-------| 
|-----2-----2----|-----2-----2----|----------------|----------------| 
|----------------|----------------|--0-----0-------|----------------| 
|--0-----0-------|--0-----0-------|-----0----------|----------------| 
|----------------|----------------|--3-------------|----------------| 

----------------|--0-------------|----------------|----------------| 
-----------3----|-----3----------|-----------3----|-----------0----| 
--------0-------|--------0-------|--------0-------|--------0-------| 
-----2----------|-----------2----|-----2----------|-----0----------| 
--3-------------|----------------|--3-------------|--2-------------| 
----------------|----------------|----------------|----------------| 

----------------|--0-------------|------------------------|----------------| 
--1-----3-------|--------3-------|--------------3-----1---|--------3--1----| 
-----2-----2----|-----2-----2----|-----------2------------|-----2----------| 
----------------|----------------|------------------------|----------------| 
--0-----0-------|--0-----0-------|--------0---------------|--3-------------| 
----------------|----------------|--3---------------------|----------------| 


-------------------| 
--------------3----| 
-----------0-------| 
--------2----------| 
-----3-------------| 
-------------------| 

--0-------------|-------------------|----------------| 
-----3----------|-------------------|----------------| 
--------0-------|-------------------|----------------| 
-----------2----|--3s-2--0----------|-----0----------| 
----------------|-----------3-------|--------3s-0----| 
----------------|-------------------|----------------| 

   Bridge 

----------------|----------------|----------------|----------------| 
--1-----1-------|--1-----1-------|--0-----0-------|--0-----0-------| 
-----2-----2----|-----2-----2----|-----0-----0----|-----0-----0----| 
----------------|----------------|----------------|----------------| 
--0-----0-------|--0-----0-------|----------------|----------------| 
----------------|----------------|--3-----3-------|--3-----3-------| 


----------------|----------------|----------------|----------------| 
--1-----1-------|--1-----1-------|--0-----0-------|--0-----0-------| 
-----0-----0----|-----0-----0----|-----0-----0----|-----0-----0----| 
----------------|----------------|----------------|----------------|  X 4 
--3-----3-------|--3-----3-------|--2-----2-------|--2-----2-------| 
----------------|----------------|----------------|----------------| 

Chorus 3 

|----------------|--0-----3-------|--5--------7s---|--5--0-----0----| 
|--1-----3-------|----------------|----------------|--------3-------| 
|-----2-----2----|-----2-----2----|----------------|----------------| 
|----------------|----------------|--0-----0-------|----------------| 
|--0-----0-------|--0-----0-------|-----0----------|----------------| 
|----------------|----------------|--3-------------|----------------| 

----------------|--0-------------|----------------|----------------| 
-----------3----|-----3----------|-----------3----|-----------0----| 
--------0-------|--------0-------|--------0-------|--------0-------| 
-----2----------|-----------2----|-----2----------|-----0----------| 
--3-------------|----------------|--3-------------|--2-------------| 
----------------|----------------|----------------|----------------| 

----------------|--0-------------|------------------------|----------------| 
--1-----3-------|--------3-------|--------------3-----1---|--------3--1----| 
-----2-----2----|-----2-----2----|-----------2------------|-----2----------| 
----------------|----------------|------------------------|----------------| 
--0-----0-------|--0-----0-------|--------0---------------|--3-------------| 
----------------|----------------|--3---------------------|----------------| 

----------------|--0-------------|----------------|----------------| 
-----------3----|-----3----------|-----------3----|-----------3----| 
--------0-------|--------0-------|--------0-------|--------0-------| 
-----2----------|-----------2----|-----2----------|-----0----------| 
--3-------------|----------------|--3-------------|--2-------------| 
----------------|----------------|----------------|----------------| 

|----------------|--0-----3-------|--5--------7s---|--5--0-----0----| 
|--1-----3-------|----------------|----------------|--------3-------| 
|-----2-----2----|-----2-----2----|----------------|----------------| 
|----------------|----------------|--0-----0-------|----------------| 
|--0-----0-------|--0-----0-------|-----0----------|----------------| 
|----------------|----------------|--3-------------|----------------| 

----------------|--0-------------|----------------|----------------| 
-----------3----|-----3----------|-----------3----|-----------0----| 
--------0-------|--------0-------|--------0-------|--------0-------| 
-----2----------|-----------2----|-----2----------|-----0----------| 
--3-------------|----------------|--3-------------|--2-------------| 
----------------|----------------|----------------|----------------| 

----------------|--0-------------|------------------------|----------------| 
--1-----3-------|--------3-------|--------------3-----1---|--------3--1----| 
-----2-----2----|-----2-----2----|-----------2------------|-----2----------| 
----------------|----------------|------------------------|----------------| 
--0-----0-------|--0-----0-------|--------0---------------|--3-------------| 
----------------|----------------|--3---------------------|----------------| 

----------------|--0-------------|----------------|----------------| 
-----------3----|-----3----------|-----------3----|-----------0----| 
--------0-------|--------0-------|--------0-------|--------0-------| 
-----2----------|-----------2----|-----2----------|-----0----------| 
--3-------------|----------------|--3-------------|--2-------------| 
----------------|----------------|----------------|----------------| 

Outro 


|--0------0----| 
|--1------0----| 
|--2------0----| 
|--0------0----| 
|--0------3----| 
|--------------| 


--0------0-| 
--1------0-| 
--0------0-| 
--0------0-| 
--3------2-| 
-----------| 


--0----------| 
--0h1--------| 
--2----------| 
--0----------| 
--0----------| 
-------------| 

Compartilhe esta música: novo

QR Code
Copiar