Better Than That

Lakyn Heperi



Main (Guitar 1)    
 

E|---3-3---3-3---3---3-3---3-3---3---3-3---3-3---3---3-3---3-3---3-| 
B|---3-3---3-3---3---3-3---3-3---3---3-3---3-3---3---3-3---3-3---3-| 
G|-----------------------------------------------------------------| 
D|-2-----2-----2---2-----2-----2---0-----0-----0---0-----0-----0---| 
A|-----------------------------------------------------------------| 
E|-----------------------------------------------------------------| 



E|---3-3---3-3---3---3-3---3-3---3---3-3---3-3---3---3-3---3-3---3-| 
B|---3-3---3-3---3---3-3---3-3---3---3-3---3-3---3---3-3---3-3---3-| 
G|-----------------------------------------------------------------| 
D|-----------------------------------------------------------------| 
A|-0-----0-----0---0-----0-----0---3-----3-----3-------------------| 
E|-------------------------------------------------3-----3-----3---| 



E|---3-3---3-3---3--| 
B|---3-3---3-3---3--| 
G|------------------|        (Repeat) 
D|------------------| 
A|-0-----0-----0----| 
E|------------------| 


Solo (Guitar 2)  No Capo 

/ -> slide up 
\ -> slide down 
b -> pitch bend up 
r -> release pitch bend 
h -> hammer on 
p -> pull off 

E|---------------------------------------| 
B|--11\10-11-11\10-11---11\10-11\10------| 
G|----------------------------------10---| 
D|---------------------------------------| 
A|---------------------------------------| 
E|---------------------------------------| 



E|---------------------------------------| 
B|--11\10-11-11\10-11---11\10-11/13-13---| 
G|---------------------------------------| 
D|---------------------------------------| 
A|---------------------------------------| 
E|---------------------------------------| 

Bend semitone 
      ^ 
E|--------13-------------------------------------------| 
B|--13b14----14r13-11--------11h13-11------------------| 
G|----------------------12--------------10---12p10p9---| 
D|-----------------------------------------------------| 
A|-----------------------------------------------------| 
E|-----------------------------------------------------| 

Compartilhe esta música: novo

QR Code
Copiar