The Servant

Kyshera

Tom: Dm
Intro 

Eb|------------------------------------------------------------5-5-5-5---5----| 
Bb|------------------------------------------------------------6-6-6-6---6----| 
Gb|-----------------7-7-7-7-9-9-9-9-10-10-10-10-10-12-12-12-12-7-7-7-7---7----| 
Db|-7-7-7-7-7-7-7-7--------------------------------------------7-7-7-7---7----| 
Ab|-----------------5-5-5-5-7-7-7-7-8--8--8--8--8--10-10-10-10-5-5-5-5---5----| 
Eb|-5-5-5-5-5-5-5-5-----------------------------------------------------------| 

Eb|---------------------------------0-x-x-0--0-0--0-0-0-0-3--3----------------| 
Bb|---------------------------------0-x-x-0--0-0--0-0-0-0-3--3----------------| 
Gb|-----------------7-7-7-7-9-9-9-9-2-x-x-2--2-2--2-2-2-2-0--0----------------| 
Db|-7-7-7-7-7-7-7-7-----------------3-x-x-3--3-3--3-3-3-3-0--0----------------| 
Ab|-----------------5-5-5-5-7-7-7-7-3-----3--3-3--3-3-3-3-2--2----------------| 
Eb|-5-5-5-5-5-5-5-5-----------------1-----1--1-1--1-1-1-1-3--3----------------| 

verse 1 - 'You have entrusted me' 
    Just Bass and Drums 
    Dm     Am     Dm     Am    Dm     Am     Dm     Am  
Eb|----------------------------------------------------------------------3----| 
Bb|-----------------------------------------------------------------------1---| 
Gb|------------------------------------------------------------------------0--| 
Db|-------------------------------------------------------------------------3-| 
Ab|---------------------------------------------------------------------------| 
Eb|---------------------------------------------------------------------------| 

verse 1 - 'Sometimes' 
    Clean     
    F               Am              F               Am    
Eb|-------3-----------------0-------------3-----------------0-----------------| 
Bb|-----1-----1-----------3---3---------1-----1-----------3---3---------------| 
Gb|---0---------0-------2-------2-----0---------0-------2-------2-------------| 
Db|-3-------------3---2-----------2-3-------------3---2-----------3-----------| 
Ab|-----------------0-------------------------------0-------------------------| 
Eb|---------------------------------------------------------------------------| 
     
    Distortion  
    D               F               Am  
    PM........................................... Build up 
Eb|-2-2-2-2-2-2-2-2-1-1-1-1-1-1-1-1-0-0-0-0-0-0-0-0-0-0-0-0-0-0-0-0-----------| 
Bb|-3-3-3-3-3-3-3-3-1-1-1-1-1-1-1-1-1-1-1-1-1-1-1-1-1-1-1-1-1-1-1-1-----------| 
Gb|-2-2-2-2-2-2-2-2-2-2-2-2-2-2-2-2-2-2-2-2-2-2-2-2-2-2-2-2-2-2-2-2-----------| 
Db|-0-0-0-0-0-0-0-0-3-3-3-3-3-3-3-3-2-2-2-2-2-2-2-2-2-2-2-2-2-2-2-2-----------| 
Ab|---------------------------------0-0-0-0-0-0-0-0-0-0-0-0-0-0-0-0-----------| 
Eb|---------------------------------------------------------------------------| 

Chorus - 'cos we will take care of everything' 
    G                 Dm           C  G                 Dm 
Eb|-3--3--5--5-5--5-5-5--5--5-5--5-0--3--3--5--5-5--5-5-----0-----------------| 
Bb|-3--3--3--3-3--3-3-6--6--6-6--6-1--3--3--3--3-3--3-3-6-----6----6----------| 
Gb|-0--0--0--0-0--0-0-7--7--7-7--7-0--0--0--0--0-0--0-0-7-7-----/7---6-5--5\4-| 
Db|-0--0--0--0-0--0-0-7--7--7-7--7-2--0--0--0--0-0--0-0-7---------------------| 
Ab|-2--2--2--2-2--2-2-5--5--5-5--5-3--2--2--2--2-2--2-2-5---------------------| 
Eb|-3--3--3--3-3--3-3-----------------3--3--3--3-3--3-3-----------------------| 

    G                 Dm           C  G                 
Eb|-3--3--5--5-5--5-5-5--5--5-5--5-0--3--3--5--5-5--5-5-----------------------| 
Bb|-3--3--3--3-3--3-3-6--6--6-6--6-1--3--3--3--3-3--3-3-----------------------| 
Gb|-0--0--0--0-0--0-0-7--7--7-7--7-0--0--0--0--0-0--0-0-----------------------| 
Db|-0--0--0--0-0--0-0-7--7--7-7--7-2--0--0--0--0-0--0-0-----------------------| 
Ab|-2--2--2--2-2--2-2-5--5--5-5--5-3--2--2--2--2-2--2-2-----------------------| 
Eb|-3--3--3--3-3--3-3-----------------3--3--3--3-3--3-3-----------------------| 
    
    'Take!' 

Eb|------------------------------------------------------------5-5-5-5---5----| 
Bb|------------------------------------------------------------6-6-6-6---6----| 
Gb|-----------------7-7-7-7-9-9-9-9-10-10-10-10-10-12-12-12-12-7-7-7-7---7----| 
Db|-7-7-7-7-7-7-7-7--------------------------------------------7-7-7-7---7----| 
Ab|-----------------5-5-5-5-7-7-7-7-8--8--8--8--8--10-10-10-10-5-5-5-5---5----| 
Eb|-5-5-5-5-5-5-5-5-----------------------------------------------------------| 

Eb|---------------------------------0-x-x-0--0-0--0-0-0-0-3--3----------------| 
Bb|---------------------------------0-x-x-0--0-0--0-0-0-0-3--3----------------| 
Gb|-----------------7-7-7-7-9-9-9-9-2-x-x-2--2-2--2-2-2-2-0--0----------------| 
Db|-7-7-7-7-7-7-7-7-----------------3-x-x-3--3-3--3-3-3-3-0--0----------------| 
Ab|-----------------5-5-5-5-7-7-7-7-3-----3--3-3--3-3-3-3-2--2----------------| 
Eb|-5-5-5-5-5-5-5-5-----------------1-----1--1-1--1-1-1-1-3--3----------------| 

verse 2 - 'Now you all accuse me' 
    Guitar 1 - Clean 
    DM                              Am 
    PM............................................................. 
Eb|---------10--------------10--------------5---------------5-----------------| 
Bb|-----10----10--10----10----10--10----5-----5---5-----5-----5---5-----------| 
Gb|---10--10----10----10--10----10----5---5-----5-----5---5-----5-------------| 
Db|-12--------------12--------------7---------------7-------------------------| 
Ab|---------------------------------------------------------------------------| 
Eb|---------------------------------------------------------------------------| 
  |                                                                           | 
  | Guitar 2 - Clean                                                          | 
  | PM.............................................................           | 
Eb|---------------------------------------------------------------------------| 
Bb|---------6---------------6-------------------------------------------------| 
Gb|-----7-----7---7-----7-----7---7---------5---------------5-----------------| 
Db|---7---7-----7-----7---7-----7-------7-----7---7-----7-----7---7-----------| 
Ab|-5---------------5-----------------7---7-----7-----7---7-----7-------------| 
Eb|---------------------------------5---------------5-------------------------| 

    Guitar 1 - Clean 
    DM                              Am 
    PM............................................................. 
Eb|---------10--------------10--------------5---------------------------------| 
Bb|-----10----10--10----10----10--10----5-----5---5-8-----6-----5-------------| 
Gb|---10--10----10----10--10----10----5---5-----5-----5-----5-----5-----------| 
Db|-12--------------12--------------7-------------------7-----7---------------| 
Ab|---------------------------------------------------------------------------| 
Eb|---------------------------------------------------------------------------| 
  |                                                                           | 
  | Guitar 2 - Clean                                                          | 
  | PM.............................................................           | 
Eb|---------------------------------------------------------------------------| 
Bb|---------6---------------6-------------------------------------------------| 
Gb|-----7-----7---7-----7-----7---7---------5---------------5-----------------| 
Db|---7---7-----7-----7---7-----7-------7-----7---7-----7-----7---7-----------| 
Ab|-5---------------5-----------------7---7-----7-----7---7-----7-------------| 
Eb|---------------------------------5---------------5-------------------------| 

    Guitar 1 - Clean 
    DM                              Am 
    PM............................................................. 
Eb|---------10--------------10--------------5---------------5-----------------| 
Bb|-----10----10--10----10----10--10----5-----5---5-----5-----5---5-----------| 
Gb|---10--10----10----10--10----10----5---5-----5-----5---5-----5-------------| 
Db|-12--------------12--------------7---------------7-------------------------| 
Ab|---------------------------------------------------------------------------| 
Eb|---------------------------------------------------------------------------| 
  |                                                                           | 
  | Guitar 2 - Clean                                                          | 
  | PM.............................................................           | 
Eb|---------------------------------------------------------------------------| 
Bb|---------6---------------6-------------------------------------------------| 
Gb|-----7-----7---7-----7-----7---7---------5---------------5-----------------| 
Db|---7---7-----7-----7---7-----7-------7-----7---7-----7-----7---7-----------| 
Ab|-5---------------5-----------------7---7-----7-----7---7-----7-------------| 
Eb|---------------------------------5---------------5-------------------------| 

    Guitar 1 - Clean 
    DM                              Am 
    PM............................................................. 
Eb|---------10--------------10--------------5---------------------------------| 
Bb|-----10----10--10----10----10--10----5-----5---5-8-----6-----5-------------| 
Gb|---10--10----10----10--10----10----5---5-----5-----5-----5-----5-----------| 
Db|-12--------------12--------------7-------------------7-----7---------------| 
Ab|---------------------------------------------------------------------------| 
Eb|---------------------------------------------------------------------------| 
  |                                                                           | 
  | Guitar 2 - Clean                                                          | 
  | PM.............................................................           | 
Eb|---------------------------------------------------------------------------| 
Bb|---------6---------------6-------------------------------------------------| 
Gb|-----7-----7---7-----7-----7---7---------5---------------5-----------------| 
Db|---7---7-----7-----7---7-----7-------7-----7---7-----7-----7---7-----------| 
Ab|-5---------------5-----------------7---7-----7-----7---7-----7-------------| 
Eb|---------------------------------5---------------5-------------------------| 
  |                                                                           | 
  | Guitar 3 - Distorted                                                      | 
Eb|---------------------------------------------------------------------------| 
Bb|---------------------------------------------------------------------------| 
Gb|---------------------------14-14-14-14-16-16-16-16-17-17-17-17-21-21-21-21-| 
Db|---------------------------------------------------------------------------| 
Ab|---------------------------12-12-12-12-14-14-14-14-15-15-15-15-19-19-19-19-| 
Eb|---------------------------------------------------------------------------| 

Chorus 2 - 'cos we will take care of everything' 

    G                 Dm           C  G                 Dm 
Eb|-3--3--5--5-5--5-5-5--5--5-5--5-0--3--3--5--5-5--5-5-----0-----------------| 
Bb|-3--3--3--3-3--3-3-6--6--6-6--6-1--3--3--3--3-3--3-3-6-----6----6----------| 
Gb|-0--0--0--0-0--0-0-7--7--7-7--7-0--0--0--0--0-0--0-0-7-7-----/7---6-5--5\4-| 
Db|-0--0--0--0-0--0-0-7--7--7-7--7-2--0--0--0--0-0--0-0-7---------------------| 
Ab|-2--2--2--2-2--2-2-5--5--5-5--5-3--2--2--2--2-2--2-2-5---------------------| 
Eb|-3--3--3--3-3--3-3-----------------3--3--3--3-3--3-3-----------------------| 

    G                 Dm           C  G                 Am 
                                                                       'Take' 
Eb|-3--3--5--5-5--5-5-5--5--5-5--5-0--3--3--5--5-5--5-5-----------------------| 
Bb|-3--3--3--3-3--3-3-6--6--6-6--6-1--3--3--3--3-3--3-3-----------------------| 
Gb|-0--0--0--0-0--0-0-7--7--7-7--7-0--0--0--0--0-0--0-0----------5-5-5--------| 
Db|-0--0--0--0-0--0-0-7--7--7-7--7-2--0--0--0--0-0--0-0-5/7--7-7-7-7-7--------| 
Ab|-2--2--2--2-2--2-2-5--5--5-5--5-3--2--2--2--2-2--2-2-5/7--7-7-7-7-7--------| 
Eb|-3--3--3--3-3--3-3-----------------3--3--3--3-3--3-3-3/5--5-5-5-5-5--------| 

Bridge - 'You brought me here' 

    Guitar 1 - Distortion 
    F                 Am                F                 Am   
Eb|---------------------------------------------------------------------------| 
Bb|---------------------------------------------------------------------------| 
Gb|-------------------5--5----5-5-5-5---------------------5--5----5-5-5-5-----| 
Db|-3---3--3--3--3----7--7----7-7-7-7---3---3--3--3--3----7--7----7-7-7-7-----| 
Ab|-3---3--3--3--3----7--7----7-7-7-7---3---3--3--3--3----7--7----7-7-7-7-----| 
Eb|-1---1--1--1--1----5--5----5-5-5-5---1---1--1--1--1----5--5----5-5-5-5-----| 
  |                                                                           | 
  | Guitar 2 - Distortion                                                     | 
Eb|-----0-15-17-0-----0-15-17-0--------------0-15-17-0-----0-15-17-0----------| 
Bb|15-17---------15-17------------------15-17---------15-17-------------------| 
Gb|----------------------------12-0-14-0----------------------------12-0-14-0-| 
Db|---------------------------------------------------------------------------| 
Ab|---------------------------------------------------------------------------| 
Eb|---------------------------------------------------------------------------| 

    Guitar 1 - Distortion 
    D                 F                Am                Am   
Eb|-2-------2--2--2---------------------0---0--0--0--0---0-0-0-0-0-0-0-0------| 
Bb|-3-------3--3--3---------------------1---1--1--1--1---5-5-5-5-5-5-5-5------| 
Gb|-2-------2--2--2---2--2--2--2--2--2--2---2--2--2--2------------------------| 
Db|-0-------0--0--0---3--3--3--3--3--3--2---2--2--2--2------------------------| 
Ab|-------------------3--3--3--3--3--3--0---0--0--0--0------------------------| 
Eb|-------------------1--1--1--1--1--1----------------------------------------| 
  |                                                                           | 
  | Guitar 2 - Distortion                                                     | 
Eb|-----0-15-17-0-----0-15-17-0--------------0-15-17-0-----0-15-17-0----------| 
Bb|15-17---------15-17------------------15-17---------15-17-------------------| 
Gb|----------------------------12-0-14-0----------------------------12-0-14-0-| 
Db|---------------------------------------------------------------------------| 
Ab|---------------------------------------------------------------------------| 
Eb|---------------------------------------------------------------------------| 

    Guitar 1 - Distortion 
    F                 Am                F                 Am   
Eb|---------------------------------------------------------------------------| 
Bb|---------------------------------------------------------------------------| 
Gb|-------------------5--5----5-5-5-5---------------------5--5----5-5-5-5-----| 
Db|-3---3--3--3--3----7--7----7-7-7-7---3---3--3--3--3----7--7----7-7-7-7-----| 
Ab|-3---3--3--3--3----7--7----7-7-7-7---3---3--3--3--3----7--7----7-7-7-7-----| 
Eb|-1---1--1--1--1----5--5----5-5-5-5---1---1--1--1--1----5--5----5-5-5-5-----| 
  |                                                                           | 
  | Guitar 2 - Distortion                                                     | 
Eb|-----0-15-17-0-----0-15-17-0--------------0-15-17-0-----0-15-17-0----------| 
Bb|15-17---------15-17------------------15-17---------15-17-------------------| 
Gb|----------------------------12-0-14-0----------------------------12-0-14-0-| 
Db|---------------------------------------------------------------------------| 
Ab|---------------------------------------------------------------------------| 
Eb|---------------------------------------------------------------------------| 

   'We know what's really best'    

    Guitar 1 - Clean 
        D         F          Am          Am   
Eb|-----2---------1------0---0------------------------------------------------| 
Bb|---3-3-------1-1-------0--0------------------------------------------------| 
Gb|--2--2------0--0--------5-5------------------------------------------------| 
Db|-0---0-----3---3----------7------------------------------------------------| 
Ab|---------------------------------------------------------------------------| 
Eb|---------------------------------------------------------------------------| 
  |                                                                           | 
  | Guitar 2 - Distortion                                                     |                  
  |                                      PM............. Build up             |    
Eb|---------------------------------------------------------------------------| 
Bb|------------------------------------------------------1-1-1-1-1-1-1-1------| 
Gb|--------------------------------------2-2-2-2-2-2-2-2-2-2-2-2-2-2-2-2------| 
Db|--------------------------------------2-2-2-2-2-2-2-2-2-2-2-2-2-2-2-2------| 
Ab|--------------------------------------0-0-0-0-0-0-0-0-0-0-0-0-0-0-0-0------| 
Eb|---------------------------------------------------------------------------| 

Solo **Over Chorus chords 
    G                 Dm             C           G              Dm 
    TR.....................................................................  
Eb|-19-19-19-20-19-20-19-19-17-13-13-20-20-22-20-19-19-20-19-20-22-22-22-22---| 
Bb|---------------------------------------------------------------------------| 
Gb|-16-16-16-17-16-17-16-16-14-10-10-17-17-19-17-16-16-17-16-17-19-19-19-19---| 
Db|---------------------------------------------------------------------------| 
Ab|---------------------------------------------------------------------------| 
Eb|---------------------------------------------------------------------------| 

    G                 Dm             C           G              Dm 
    TR.....................................................................  
Eb|-19-19-19-20-19-20-19-19-17-13-13-20-20-22-20-19-19-20-19-20-22-22-22-22---| 
Bb|---------------------------------------------------------------------------| 
Gb|-16-16-16-17-16-17-16-16-14-10-10-17-17-19-17-16-16-17-16-17-19-19-19-19---| 
Db|---------------------------------------------------------------------------| 
Ab|---------------------------------------------------------------------------| 
Eb|---------------------------------------------------------------------------| 

Chorus - 'cos we will take care of everything' 
    G                 Dm           C  G                 Dm 
Eb|-3--3--5--5-5--5-5-5--5--5-5--5-0--3--3--5--5-5--5-5-----0-----------------| 
Bb|-3--3--3--3-3--3-3-6--6--6-6--6-1--3--3--3--3-3--3-3-6-----6----6----------| 
Gb|-0--0--0--0-0--0-0-7--7--7-7--7-0--0--0--0--0-0--0-0-7-7-----/7---6-5--5\4-| 
Db|-0--0--0--0-0--0-0-7--7--7-7--7-2--0--0--0--0-0--0-0-7---------------------| 
Ab|-2--2--2--2-2--2-2-5--5--5-5--5-3--2--2--2--2-2--2-2-5---------------------| 
Eb|-3--3--3--3-3--3-3-----------------3--3--3--3-3--3-3-----------------------| 

    G                 Dm           C  G                 
Eb|-3--3--5--5-5--5-5-5--5--5-5--5-0--3--3--5--5-5--5-5-----------------------| 
Bb|-3--3--3--3-3--3-3-6--6--6-6--6-1--3--3--3--3-3--3-3-----------------------| 
Gb|-0--0--0--0-0--0-0-7--7--7-7--7-0--0--0--0--0-0--0-0-----------------------| 
Db|-0--0--0--0-0--0-0-7--7--7-7--7-2--0--0--0--0-0--0-0-----------------------| 
Ab|-2--2--2--2-2--2-2-5--5--5-5--5-3--2--2--2--2-2--2-2-----------------------| 
Eb|-3--3--3--3-3--3-3-----------------3--3--3--3-3--3-3-----------------------| 
    
    'Take!' 

Eb|------------------------------------------------------------5-5-5-5---5----| 
Bb|------------------------------------------------------------6-6-6-6---6----| 
Gb|-----------------7-7-7-7-9-9-9-9-10-10-10-10-10-12-12-12-12-7-7-7-7---7----| 
Db|-7-7-7-7-7-7-7-7--------------------------------------------7-7-7-7---7----| 
Ab|-----------------5-5-5-5-7-7-7-7-8--8--8--8--8--10-10-10-10-5-5-5-5---5----| 
Eb|-5-5-5-5-5-5-5-5-----------------------------------------------------------| 

Eb|---------------------------------0-x-x-0--0-0--0-0-0-0-3--3----------------| 
Bb|---------------------------------0-x-x-0--0-0--0-0-0-0-3--3----------------| 
Gb|-----------------7-7-7-7-9-9-9-9-2-x-x-2--2-2--2-2-2-2-0--0----------------| 
Db|-7-7-7-7-7-7-7-7-----------------3-x-x-3--3-3--3-3-3-3-0--0----------------| 
Ab|-----------------5-5-5-5-7-7-7-7-3-----3--3-3--3-3-3-3-2--2----------------| 
Eb|-5-5-5-5-5-5-5-5-----------------1-----1--1-1--1-1-1-1-3--3----------------| 

    'Take!' 
     Guitar 1  
Eb|------------------------------------------------------------5-5-5-5---5----| 
Bb|------------------------------------------------------------6-6-6-6---6----| 
Gb|-----------------7-7-7-7-9-9-9-9-10-10-10-10-10-12-12-12-12-7-7-7-7---7----| 
Db|-7-7-7-7-7-7-7-7--------------------------------------------7-7-7-7---7----| 
Ab|-----------------5-5-5-5-7-7-7-7-8--8--8--8--8--10-10-10-10-5-5-5-5---5----| 
Eb|-5-5-5-5-5-5-5-5-----------------------------------------------------------| 
  |                                                                           |   
  | Guitar 2                                                                  | 
Eb|-----------------10-10-10-12-12--13-13-13-13-13-15-15-15-15----------------| 
Bb|10-10-10-10-10-10-------------------------------------------15-15-15-15-15-| 
Gb|---------------------------------------------------------------------------| 
Db|---------------------------------------------------------------------------| 
Ab|---------------------------------------------------------------------------| 
Eb|---------------------------------------------------------------------------| 

    Guitar 1                                                    'Take you' 
Eb|---------------------------------0-x-x-0--0-0--0-0-0-0-3--3----------------| 
Bb|---------------------------------0-x-x-0--0-0--0-0-0-0-3--3----------------| 
Gb|-----------------7-7-7-7-9-9-9-9-2-x-x-2--2-2--2-2-2-2-0--0----------------| 
Db|-7-7-7-7-7-7-7-7-----------------3-x-x-3--3-3--3-3-3-3-0--0----------------| 
Ab|-----------------5-5-5-5-7-7-7-7-3-----3--3-3--3-3-3-3-2--2----------------| 
Eb|-5-5-5-5-5-5-5-5-----------------1-----1--1-1--1-1-1-1-3--3----------------| 
  |                                                                           |   
  | Guitar 2 - Whammy pedal up 1 octave                                       | 
Eb|-----------------10-10-10-12-12--13-13-13-13-13-13-13--15-15\--------------| 
Bb|10-10-10-10-10-10----------------------------------------------------------| 
Gb|---------------------------------------------------------------------------| 
Db|---------------------------------------------------------------------------| 
Ab|---------------------------------------------------------------------------| 
Eb|---------------------------------------------------------------------------| 


************************************ 

| x   Dead note 
| h   Hammer-on 
| p   Pull-off 
| /   Slide up 
| \   Slide down 
| PM  Palm mute 
| TR  Trill 

************************************ 

Compartilhe esta música: novo

QR Code
Copiar