Know Your Enemy

Kyshera

Tom: E
Intro 

Eb|---------------------------------------------------------------------------| 
Bb|---------------------------------------------------------------------------| 
Gb|---------------------------------------------------------------------------| 
Db|---------------------------------------------------------------------------| 
Ab|---------------------------------------------------------------------------| 
Eb|-2-2-2--2-2--2-2----2-2-2--2-2--2-2----2-2-2--2-2--2-2----2-2-2--2-2--2-2--| 

verse 1 - 'Big banks' 

Eb|---------------------------------------------------------------------------|} 
Bb|---------------------------------------------------------------------------| } 
Gb|---------------------------------------------------------------------------|  } x2 
Db|---------------------------------------------------------------------------|  } 
Ab|---------------------------------------------------------------------------| } 
Eb|-2-2-2--2-2--2-2----2-2-2--2-2--2-2----2-2-2--2-2--2-2----2-2-2--2-2--2-2--|} 
  
   'cos they're all criminals now' 

    Guitar 1 - Clean    
    E      B 
Eb|-0-------------------------------------------------------------------------| 
Bb|-0------0------------------------------------------------------------------| 
Gb|-9------8------------------------------------------------------------------| 
Db|-9------9------------------------------------------------------------------| 
Ab|-7------9------------------------------------------------------------------| 
Eb|-0------7------------------------------------------------------------------| 
  |                                                                           | 
  | Guitar 2 - Distorted                                                      |  
Eb|---------------------------------------------------------------------------| 
Bb|---------------------------------------------------------------------------| 
Gb|---------------------------------------------------------------------------| 
Db|---------------------------------------------------------------------------| 
Ab|---------------------------------------------------------------------------| 
Eb|----------------2-2-2--2-2--2-2----2-2-2--2-2--2-2-------------------------| 

   'They're all criminals now' 

    Guitar 1 - Clean    
    E      B 
Eb|-0-------------------------------------------------------------------------| 
Bb|-0------0------------------------------------------------------------------| 
Gb|-9------8------------------------------------------------------------------| 
Db|-9------9------------------------------------------------------------------| 
Ab|-7------9------------------------------------------------------------------| 
Eb|-0------7------------------------------------------------------------------| 
  |                                                                           | 
  | Guitar 2 - Distorted                                                      |  
Eb|---------------------------------------------------------------------------| 
Bb|---------------------------------------------------------------------------| 
Gb|---------------------------------------------------------------------------| 
Db|---------------------------------------------------------------------------| 
Ab|---------------------------------------------------------------------------| 
Eb|----------------2-2-2--2-2--2-2--/14\--------------------------------------| 

Pre-Chorus - 'Left or Right' 

    Guitar 1 - Distorted 
    E       B       D       A 
Eb|---------------------------------------------------------------------------| 
Bb|---------------------------------------------------------------------------| 
Gb|-9---9-----------7---7-----------------------------------------------------| 
Db|-9---9---9---9---7---7---7---7---------------------------------------------| 
Ab|-7---7---9---9---5---5---7---7---------------------------------------------| 
Eb|-0---0---7---7-----------5---5---2-2-2--2-2--2-2----2-2-2--2-2--2-2--------| 
  |                                                                           |  
  | Guitar 2 - Distorted                                                      | 
Eb|---------------------------------------------------------------------------| 
Bb|---------------------------------------------------------------------------| 
Gb|-----9-------8-------7-------6---------------------------------------------| 
Db|---9---9---9---9---7---7---7---7-------------------------------------------| 
Ab|-7---------------5---------------------------------------------------------| 
Eb|---------7---------------5-------2-2-2--2-2--2-2----2-2-2--2-2--2-2--------| 

Chorus - 'We are many and they are few' 
    F#5             C#5             A               E   
Eb|---------------------------------------------------------------------------| 
Bb|---------------------------------------------------------------------------| 
Gb|-----------------6-6-6-6-6-6-6-6-------------------------------------------| 
Db|-4-4-4-4-4-4-4-4-6-6-6-6-6-6-6-6-7-7-7-7-7-7-7-7-2-2-2-2-2-2-2-2-----------| 
Ab|-4-4-4-4-4-4-4-4-4-4-4-4-4-4-4-4-7-7-7-7-7-7-7-7-2-2-2-2-2-2-2-2-----------| 
Eb|-2-2-2-2-2-2-2-2-----------------5-5-5-5-5-5-5-5-0-0-0-0-0-0-0-0-----------| 

    F#5             C#5             A               E   
Eb|---------------------------------------------------------------------------| 
Bb|---------------------------------------------------------------------------| 
Gb|-----------------6-6-6-6-6-6-6-6-------------------------------------------| 
Db|-4-4-4-4-4-4-4-4-6-6-6-6-6-6-6-6-7-7-7-7-7-7-7-7-2-2-2-2-2-2-2-2-----------| 
Ab|-4-4-4-4-4-4-4-4-4-4-4-4-4-4-4-4-7-7-7-7-7-7-7-7-2-2-2-2-2-2-2-2-----------| 
Eb|-2-2-2-2-2-2-2-2-----------------5-5-5-5-5-5-5-5-0-0-0-0-0-0-0-0-----------| 

  'We don't need to know the answers' 

    F#    C#        A     F#m       D     C# 
Eb|-2--2------------5--5--2--2-2-2--------------------------------------------| 
Bb|-2--2--6--6-6-6--5--5--2--2-2-2--7--7--6-6---------------------------------| 
Gb|-3--3--6--6-6-6--6--6--2--2-2-2--7--7--6-6---------------------------------| 
Db|-4--4--6--6-6-6--7--7--4--4-4-4--7--7--6-6---------------------------------| 
Ab|-4--4--4--4-4-4--7--7--4--4-4-4--5--5--4-4---------------------------------| 
Eb|-2--2------------5--5--2--2-2-2--------------------------------------------| 

Eb|---------------------------------------------------------------------------| 
Bb|---------------------------------------------------------------------------| 
Gb|---------------------------------------------------------------------------| 
Db|---------------------------------------------------------------------------| 
Ab|---------------------------------------------------------------------------| 
Eb|-2-2-2--2-2--2-2----2-2-2--2-2--2-2----2-2-2--2-2--2-2----2-2-2--2-2--2-2--| 

Verse - 'So the middle and the working classes' 
    Same as Verse but no Guitar, just Bass. 
Eb|---------------------------------------------------------------------------| 
Bb|---------------------------------------------------------------------------| 
Gb|---------------------------------------------------------------------------| 
Db|---------------------------------------------------------------------------| 
Ab|---------------------------------------------------------------------------| 
Eb|---------------------------------------------------------------------------| 

   'cos they're all criminals now' 

    Guitar 1 - Clean    
    E      B 
Eb|-0-------------------------------------------------------------------------| 
Bb|-0------0------------------------------------------------------------------| 
Gb|-9------8------------------------------------------------------------------| 
Db|-9------9------------------------------------------------------------------| 
Ab|-7------9------------------------------------------------------------------| 
Eb|-0------7------------------------------------------------------------------| 
  |                                                                           | 
  | Guitar 2 - Distorted                                                      |  
Eb|---------------------------------------------------------------------------| 
Bb|---------------------------------------------------------------------------| 
Gb|---------------------------------------------------------------------------| 
Db|---------------------------------------------------------------------------| 
Ab|---------------------------------------------------------------------------| 
Eb|----------------2-2-2--2-2--2-2----2-2-2--2-2--2-2-------------------------| 

'They're all criminals now' 

    Guitar 1 - Clean    
    E      B 
Eb|-0-------------------------------------------------------------------------| 
Bb|-0------0------------------------------------------------------------------| 
Gb|-9------8------------------------------------------------------------------| 
Db|-9------9------------------------------------------------------------------| 
Ab|-7------9------------------------------------------------------------------| 
Eb|-0------7------------------------------------------------------------------| 
  |                                                                           | 
  | Guitar 2 - Distorted                                                      |  
Eb|---------------------------------------------------------------------------| 
Bb|---------------------------------------------------------------------------| 
Gb|---------------------------------------------------------------------------| 
Db|---------------------------------------------------------------------------| 
Ab|---------------------------------------------------------------------------| 
Eb|----------------2-2-2--2-2--2-2--/14\--------------------------------------| 

Pre-Chorus 2 - 'They're all criminals, don't be a sucker' 

    Guitar 1 - Distorted 
    E       B       D       A 
Eb|---------------------------------------------------------------------------| 
Bb|---------------------------------------------------------------------------| 
Gb|-9---9-----------7---7-----------------------------------------------------| 
Db|-9---9---9---9---7---7---7---7---------------------------------------------| 
Ab|-7---7---9---9---5---5---7---7---------------------------------------------| 
Eb|-0---0---7---7-----------5---5---2-2-2--2-2--2-2----2-2-2--2-2--2-2--------| 
  |                                                                           |  
  | Guitar 2 - Distorted                                                      | 
Eb|---------------------------------------------------------------------------| 
Bb|---------------------------------------------------------------------------| 
Gb|-----9-------8-------7-------6---------------------------------------------| 
Db|---9---9---9---9---7---7---7---7-------------------------------------------| 
Ab|-7---------------5---------------------------------------------------------| 
Eb|---------7---------------5-------2-2-2--2-2--2-2----2-2-2--2-2--2-2--------| 

Chorus 2 - 'We are many and they are few' 
    F#5             C#5             A               E   
Eb|---------------------------------------------------------------------------| 
Bb|---------------------------------------------------------------------------| 
Gb|-----------------6-6-6-6-6-6-6-6-------------------------------------------| 
Db|-4-4-4-4-4-4-4-4-6-6-6-6-6-6-6-6-7-7-7-7-7-7-7-7-2-2-2-2-2-2-2-2-----------| 
Ab|-4-4-4-4-4-4-4-4-4-4-4-4-4-4-4-4-7-7-7-7-7-7-7-7-2-2-2-2-2-2-2-2-----------| 
Eb|-2-2-2-2-2-2-2-2-----------------5-5-5-5-5-5-5-5-0-0-0-0-0-0-0-0-----------| 

    F#5             C#5             A               E   
Eb|---------------------------------------------------------------------------| 
Bb|---------------------------------------------------------------------------| 
Gb|-----------------6-6-6-6-6-6-6-6-------------------------------------------| 
Db|-4-4-4-4-4-4-4-4-6-6-6-6-6-6-6-6-7-7-7-7-7-7-7-7-2-2-2-2-2-2-2-2-----------| 
Ab|-4-4-4-4-4-4-4-4-4-4-4-4-4-4-4-4-7-7-7-7-7-7-7-7-2-2-2-2-2-2-2-2-----------| 
Eb|-2-2-2-2-2-2-2-2-----------------5-5-5-5-5-5-5-5-0-0-0-0-0-0-0-0-----------| 

  'We don't need to know the answers' 

    F#    C#        A     F#m       D     C# 
Eb|-2--2------------5--5--2--2-2-2--------------------------------------------| 
Bb|-2--2--6--6-6-6--5--5--2--2-2-2--7--7--6-6---------------------------------| 
Gb|-3--3--6--6-6-6--6--6--2--2-2-2--7--7--6-6---------------------------------| 
Db|-4--4--6--6-6-6--7--7--4--4-4-4--7--7--6-6---------------------------------| 
Ab|-4--4--4--4-4-4--7--7--4--4-4-4--5--5--4-4---------------------------------| 
Eb|-2--2------------5--5--2--2-2-2--------------------------------------------| 

Eb|---------------------------------------------------------------------------| 
Bb|---------------------------------------------------------------------------| 
Gb|---------------------------------------------------------------------------| 
Db|---------------------------------------------------------------------------| 
Ab|---------------------------------------------------------------------------| 
Eb|-2-2-2--2-2--2-2----2-2-2--2-2--2-2----2-2-2--2-2--2-2----2-2-2--2-2--2-2--| 

Bridge 

Eb|---------------------------------------------------------------------------|} 
Bb|---------------------------------------------------------------------------| } 
Gb|---------------------------------------------------------------------------|  } x4 
Db|-----4---------2-----4---2-----------4---------2-----4---2-----------------|  } 
Ab|---------0-1-2-------------2-1-----------0-1-2-------------2-1-------------| } 
Eb|-2-2---2---------2-2---2-------0-2-2---2---------2-2---2-------0-----------|} 

Pre-Chorus 3 - 'They're all criminals now' 
    E    B          F#        F#         E    B          F#        F#     
Eb|---0--7--7-7-7-7-2-2--2-2--2--2-2-2-2---0--7--7-7-7-7-2-2--2-2--2--2-2-2-2-| 
Bb|---0--7--7-7-7-7-2-2--2-2--2--2-2-2-2---0--7--7-7-7-7-2-2--2-2--2--2-2-2-2-| 
Gb|-1-1--8--8-8-8-8-3-3--3-3--3--3-3-3-3-1-1--8--8-8-8-8-3-3--3-3--3--3-3-3-3-| 
Db|-2-2--9--9-9-9-9-4-4--4-4--4--4-4-4-4-2-2--9--9-9-9-9-4-4--4-4--4--4-4-4-4-| 
Ab|-2-2--9--9-9-9-9-4-4--4-4--4--4-4-4-4-2-2--9--9-9-9-9-4-4--4-4--4--4-4-4-4-| 
Eb|-0-0--7--7-7-7-7-2-2--2-2--2--2-2-2-2-0-0--7--7-7-7-7-2-2--2-2--2--2-2-2-2-| 

   'Left or Right' 
    Guitar 1 - Distorted 
    E       B       D       A 
Eb|---------------------------------------------------------------------------| 
Bb|---------------------------------------------------------------------------| 
Gb|-9---9-----------7---7-----------------------------------------------------| 
Db|-9---9---9---9---7---7---7---7---------------------------------------------| 
Ab|-7---7---9---9---5---5---7---7---------------------------------------------| 
Eb|-0---0---7---7-----------5---5---------------------------------------------| 
  |                                                                           |  
  | Guitar 2 - Distorted                                                      | 
Eb|---------------------------------------------------------------------------| 
Bb|---------------------------------------------------------------------------| 
Gb|-----9-------8-------7-------6---------------------------------------------| 
Db|---9---9---9---9---7---7---7---7-------------------------------------------| 
Ab|-7---------------5---------------------------------------------------------| 
Eb|---------7---------------5-------------------------------------------------| 

Build up - 'I know my enemy and our war is always with me' 
    Riff played 4 times on Bass 
Eb|---------------------------------------------------------------------------| 
Bb|---------------------------------------------------------------------------| 
Gb|---------------------------------------------------------------------------| 
Db|---------------------------------------------------------------------------| 
Ab|---------------------------------------------------------------------------| 
Eb|---------------------------------------------------------------------------| 
    Build up 
Eb|---------------------------------------------------------------------------|} 
Bb|---------------------------------------------------------------------------| } 
Gb|---------------------------------------------------------------------------|  } x3 
Db|---------------------------------------------------------------------------|  } 
Ab|---------------------------------------------------------------------------| }  
Eb|-2-2-2--2-2--2-2----2-2-2--2-2--2-2----2-2-2--2-2--2-2----2-2-2--2-2--2-2--|} 

Outro - 'I know my enemy and our war is always with me' 

Eb|---------------------------------------------------------------------------|} 
Bb|---------------------------------------------------------------------------| } 
Gb|---------------------------------------------------------------------------|  } x4 
Db|-----4---------2-----4---2-----------4---------2-----4---2-----------------|  } 
Ab|---------0-1-2-------------2-1-----------0-1-2-------------2-1-------------| } 
Eb|-2-2---2---------2-2---2-------0-2-2---2---------2-2---2-------0-----------|} 

Eb|---------------------------------------------------------------------------| 
Bb|---------------------------------------------------------------------------| 
Gb|---------------------------------------------------------------------------| 
Db|-4-------------------------------------------------------------------------| 
Ab|-4-------------------------------------------------------------------------| 
Eb|-2-------------------------------------------------------------------------| 


************************************ 

| /   Slide up 
| \   Slide down 


************************************ 

Compartilhe esta música: novo

QR Code
Copiar