Coma

Kyshera

Tom: C
TUNING = C, G, G, G, C, D (Low to High) 

Intro 

D |--------------------------------------------------------------------------| 
C |--------------------------------------------------------------------------|  
G |--8-8-8-8-8-8-8-8-5-5-5-5-5-5-5-5-0-0-0-0-0-0-0-0-0-0-0-0-0-0-0-0---------|   
C |--8-8-8-8-8-8-8-8-5-5-5-5-5-5-5-5-0-0-0-0-0-0-0-0-0-0-0-0-0-0-0-0---------|    
G |--8-8-8-8-8-8-8-8-5-5-5-5-5-5-5-5-0-0-0-0-0-0-0-0-0-0-0-0-0-0-0-0---------|     
C |--8-8-8-8-8-8-8-8-5-5-5-5-5-5-5-5-0-0-0-0-0-0-0-0-0-0-0-0-0-0-0-0---------|      
                                                                                    
D |--------------------------------------------------------------------------|      
C |--------------------------------------------------------------------------|     
G |--3-3-3-3-3-3-3-3-1-1-1-1-1-1-1-1-0-0-0-0-0-0-0-0-0-0-0-0-0-0-0-0---------|    
C |--3-3-3-3-3-3-3-3-1-1-1-1-1-1-1-1-0-0-0-0-0-0-0-0-0-0-0-0-0-0-0-0---------|   
G |--3-3-3-3-3-3-3-3-1-1-1-1-1-1-1-1-0-0-0-0-0-0-0-0-0-0-0-0-0-0-0-0---------|  
C |--3-3-3-3-3-3-3-3-1-1-1-1-1-1-1-1-0-0-0-0-0-0-0-0-0-0-0-0-0-0-0-0---------| 

D |--------------------------------------------------------------------------| 
C |--------------------------------------------------------------------------|  
G |--8-8-8-8-8-8-8-8-5-5-5-5-5-5-5-5-0-0-0-0-0-0-0-0-0-0-0-0-0-0-0-0---------|   
C |--8-8-8-8-8-8-8-8-5-5-5-5-5-5-5-5-0-0-0-0-0-0-0-0-0-0-0-0-0-0-0-0---------|    
G |--8-8-8-8-8-8-8-8-5-5-5-5-5-5-5-5-0-0-0-0-0-0-0-0-0-0-0-0-0-0-0-0---------|     
C |--8-8-8-8-8-8-8-8-5-5-5-5-5-5-5-5-0-0-0-0-0-0-0-0-0-0-0-0-0-0-0-0---------|    
                                                                                    
D |--------------------------------------------------------------------------|      
C |--------------------------------------------------------------------------|     
G |--3-3-3-3-3-3-3-3-1-1-1-1-1-1-1-1-0---------------------------------------|    
C |--3-3-3-3-3-3-3-3-1-1-1-1-1-1-1-1-0---------------------------------------|   
G |--3-3-3-3-3-3-3-3-1-1-1-1-1-1-1-1-0---------------------------------------|  
C |--3-3-3-3-3-3-3-3-1-1-1-1-1-1-1-1-0---------------------------------------|  

  Guitar 2 
**Clean arpeggio part throughout (with pitch shifter effect)**  
D |--5-------5-------5-------5-------5-------5-------5-------5---------------|      
C |------5-------5-------5-------5-------5-------5-------5-------6-----------|     
G |----5---5---5---5---5---5---5---5---5---5---5---5---5---5---5---5---------|    
C |--------------------------------------------------------------------------|   
G |--------------------------------------------------------------------------| 
C |--------------------------------------------------------------------------|  

verse 1'I fall inside' 

D |---------------------------------------------------------------------------| 
C |---------------------------------------------------------------------------| 
G |---------------------------------------------------------------------------| 
C |--8----5----4----5--4-----8----5----0----4--5--7---------------------------| 
G |--8----5----0-----------5-8----5----0--------------------------------------| 
C |--8----5----0-------------8----5----0--------------------------------------| 

D |---------------------------------------------------------------------------| 
C |---------------------------------------------------------------------------| 
G |---------------------------------------------------------------------------| 
C |--8----5----4----5--4-----8----5----0--------------------------------------| 
G |--8----5----0-----------5-8----5----0--------------------------------------| 
C |--8----5----0-------------8----5----0--------------------------------------| 

Chorus 

D |--------------------------------------------------------------------------| 
C |--------------------------------------------------------------------------|  
G |--8-8-8-8-8-8-8-8-5-5-5-5-5-5-5-5-0-0-0-0-0-0-0-0-0-0-0-0-0-0-0-0---------|   
C |--8-8-8-8-8-8-8-8-5-5-5-5-5-5-5-5-0-0-0-0-0-0-0-0-0-0-0-0-0-0-0-0---------|    
G |--8-8-8-8-8-8-8-8-5-5-5-5-5-5-5-5-0-0-0-0-0-0-0-0-0-0-0-0-0-0-0-0---------|     
C |--8-8-8-8-8-8-8-8-5-5-5-5-5-5-5-5-0-0-0-0-0-0-0-0-0-0-0-0-0-0-0-0---------|      
                                                                                    
D |--------------------------------------------------------------------------|      
C |--------------------------------------------------------------------------|     
G |--3-3-3-3-3-3-3-3-1-1-1-1-1-1-1-1-0-0-0-0-0-0-0-0-0-0-0-0-0-0-0-0---------|    
C |--3-3-3-3-3-3-3-3-1-1-1-1-1-1-1-1-0-0-0-0-0-0-0-0-0-0-0-0-0-0-0-0---------|   
G |--3-3-3-3-3-3-3-3-1-1-1-1-1-1-1-1-0-0-0-0-0-0-0-0-0-0-0-0-0-0-0-0---------|  
C |--3-3-3-3-3-3-3-3-1-1-1-1-1-1-1-1-0-0-0-0-0-0-0-0-0-0-0-0-0-0-0-0---------| 

D |--------------------------------------------------------------------------| 
C |--------------------------------------------------------------------------|  
G |--8-8-8-8-8-8-8-8-5-5-5-5-5-5-5-5-0-0-0-0-0-0-0-0-0-0-0-0-0-0-0-0---------|   
C |--8-8-8-8-8-8-8-8-5-5-5-5-5-5-5-5-0-0-0-0-0-0-0-0-0-0-0-0-0-0-0-0---------|    
G |--8-8-8-8-8-8-8-8-5-5-5-5-5-5-5-5-0-0-0-0-0-0-0-0-0-0-0-0-0-0-0-0---------|     
C |--8-8-8-8-8-8-8-8-5-5-5-5-5-5-5-5-0-0-0-0-0-0-0-0-0-0-0-0-0-0-0-0---------|    
                                                                                    
D |--------------------------------------------------------------------------|      
C |--------------------------------------------------------------------------|     
G |--3-3-3-3-3-3-3-3-1-1-1-1-1-1-1-1-0---------------------------------------|    
C |--3-3-3-3-3-3-3-3-1-1-1-1-1-1-1-1-0---------------------------------------|   
G |--3-3-3-3-3-3-3-3-1-1-1-1-1-1-1-1-0---------------------------------------|  
C |--3-3-3-3-3-3-3-3-1-1-1-1-1-1-1-1-0---------------------------------------|  

  Guitar 2 
**Clean arpeggio part throughout (with pitch shifter effect)**  
D |--5-------5-------5-------5-------5-------5-------5-------5---------------|      
C |------5-------5-------5-------5-------5-------5-------5-------6-----------|     
G |----5---5---5---5---5---5---5---5---5---5---5---5---5---5---5---5---------|    
C |--------------------------------------------------------------------------|   
G |--------------------------------------------------------------------------| 
C |--------------------------------------------------------------------------|  

verse 2'A refugee' 

D |---------------------------------------------------------------------------| 
C |---------------------------------------------------------------------------| 
G |---------------------------------------------------------------------------| 
C |--8----5----4----5--4-----8----5----0----4--5--7---------------------------| 
G |--8----5----0-----------5-8----5----0--------------------------------------| 
C |--8----5----0-------------8----5----0--------------------------------------| 

D |---------------------------------------------------------------------------| 
C |---------------------------------------------------------------------------| 
G |---------------------------------------------------------------------------| 
C |--8----5----4----5--4-----8----5----0--------------------------------------| 
G |--8----5----0-----------5-8----5----0--------------------------------------| 
C |--8----5----0-------------8----5----0--------------------------------------| 

Chorus 

D |--------------------------------------------------------------------------|}  
C |--------------------------------------------------------------------------| } 
G |--8-8-8-8-8-8-8-8-5-5-5-5-5-5-5-5-0-0-0-0-0-0-0-0-0-0-0-0-0-0-0-0---------|  } 
C |--8-8-8-8-8-8-8-8-5-5-5-5-5-5-5-5-0-0-0-0-0-0-0-0-0-0-0-0-0-0-0-0---------|   } 
G |--8-8-8-8-8-8-8-8-5-5-5-5-5-5-5-5-0-0-0-0-0-0-0-0-0-0-0-0-0-0-0-0---------|    } 
C |--8-8-8-8-8-8-8-8-5-5-5-5-5-5-5-5-0-0-0-0-0-0-0-0-0-0-0-0-0-0-0-0---------|     } 
                                                                                    } X2 
D |--------------------------------------------------------------------------|     } 
C |--------------------------------------------------------------------------|    } 
G |--3-3-3-3-3-3-3-3-1-1-1-1-1-1-1-1-0-0-0-0-0-0-0-0-0-0-0-0-0-0-0-0---------|   } 
C |--3-3-3-3-3-3-3-3-1-1-1-1-1-1-1-1-0-0-0-0-0-0-0-0-0-0-0-0-0-0-0-0---------|  } 
G |--3-3-3-3-3-3-3-3-1-1-1-1-1-1-1-1-0-0-0-0-0-0-0-0-0-0-0-0-0-0-0-0---------| } 
C |--3-3-3-3-3-3-3-3-1-1-1-1-1-1-1-1-0-0-0-0-0-0-0-0-0-0-0-0-0-0-0-0---------|} 

  Guitar 2 
Clean arpeggio part throughout (with pitch shifter effect)  
D |--5-------5-------5-------5-------5-------5-------5-------5---------------|      
C |------5-------5-------5-------5-------5-------5-------5-------6-----------|     
G |----5---5---5---5---5---5---5---5---5---5---5---5---5---5---5---5---------|    
C |--------------------------------------------------------------------------|   
G |--------------------------------------------------------------------------| 
C |--------------------------------------------------------------------------|  

Instrumental repeat 
D |--------------------------------------------------------------------------| 
C |--------------------------------------------------------------------------|  
G |--8-8-8-8-8-8-8-8-5-5-5-5-5-5-5-5-0-0-0-0-0-0-0-0-0-0-0-0-0-0-0-0---------|   
C |--8-8-8-8-8-8-8-8-5-5-5-5-5-5-5-5-0-0-0-0-0-0-0-0-0-0-0-0-0-0-0-0---------|    
G |--8-8-8-8-8-8-8-8-5-5-5-5-5-5-5-5-0-0-0-0-0-0-0-0-0-0-0-0-0-0-0-0---------|     
C |--8-8-8-8-8-8-8-8-5-5-5-5-5-5-5-5-0-0-0-0-0-0-0-0-0-0-0-0-0-0-0-0---------|      
                                                                                    
D |--------------------------------------------------------------------------|      
C |--------------------------------------------------------------------------|     
G |--3-3-3-3-3-3-3-3-1-1-1-1-1-1-1-1-0-0-0-0-0-0-0-0-0-0-0-0-0-0-0-0---------|    
C |--3-3-3-3-3-3-3-3-1-1-1-1-1-1-1-1-0-0-0-0-0-0-0-0-0-0-0-0-0-0-0-0---------|   
G |--3-3-3-3-3-3-3-3-1-1-1-1-1-1-1-1-0-0-0-0-0-0-0-0-0-0-0-0-0-0-0-0---------|  
C |--3-3-3-3-3-3-3-3-1-1-1-1-1-1-1-1-0-0-0-0-0-0-0-0-0-0-0-0-0-0-0-0---------| 

D |--------------------------------------------------------------------------| 
C |--------------------------------------------------------------------------|  
G |--8-8-8-8-8-8-8-8-5-5-5-5-5-5-5-5-0-0-0-0-0-0-0-0-0-0-0-0-0-0-0-0---------|   
C |--8-8-8-8-8-8-8-8-5-5-5-5-5-5-5-5-0-0-0-0-0-0-0-0-0-0-0-0-0-0-0-0---------|    
G |--8-8-8-8-8-8-8-8-5-5-5-5-5-5-5-5-0-0-0-0-0-0-0-0-0-0-0-0-0-0-0-0---------|     
C |--8-8-8-8-8-8-8-8-5-5-5-5-5-5-5-5-0-0-0-0-0-0-0-0-0-0-0-0-0-0-0-0---------|    
                                                                                    
D |--------------------------------------------------------------------------|      
C |--------------------------------------------------------------------------|     
G |--3-3-3-3-3-3-3-3-1-1-1-1-1-1-1-1-0---------------------------------------|    
C |--3-3-3-3-3-3-3-3-1-1-1-1-1-1-1-1-0---------------------------------------|   
G |--3-3-3-3-3-3-3-3-1-1-1-1-1-1-1-1-0---------------------------------------|  
C |--3-3-3-3-3-3-3-3-1-1-1-1-1-1-1-1-0---------------------------------------| 

Solo 
Pick as fast as you can on the one note and bend the pitch down with Whammy pedal 
    (\\\ represents point of downward pitch bend with Whammy) 

    TR................................................ 
D |--------------------------------------------------------------------------|      
C |--------------------------------------------------------------------------|     
G |--5-5-5-5\\\-5-5-5-5\\\-5-5-5-5\\-5-8-8-8-8-8-8-8-------------------------|    
C |--------------------------------------------------------------------------|   
G |--------------------------------------------------------------------------|  
C |--------------------------------------------------------------------------| 
    TR................................................ 
D |--------------------------------------------------------------------------|      
C |--------------------------------------------------------------------------|     
G |--5-5-5-5\\\-5-5-5-5\\\-5-5-5-5\\-5-8-8-8-8-8-8-8-------------------------|    
C |--------------------------------------------------------------------------|   
G |--------------------------------------------------------------------------|  
C |--------------------------------------------------------------------------| 
    TR................................................  
D |--------------------------------------------------------------------------|      
C |--------------------------------------------------------------------------|     
G |--8-8-8-8\\\-8-8-8-8\\\-8-8-8-8\\-8-8-8-8-8-8-8-8-------------------------|    
C |--------------------------------------------------------------------------|   
G |--------------------------------------------------------------------------|  
C |--------------------------------------------------------------------------| 
    TR................................................  
D |--------------------------------------------------------------------------|      
C |--------------------------------------------------------------------------|     
G |--5-5-5-5\\\-5-5-5-5\\\-5-5-5-5\\-5---------------------------------------|    
C |--------------------------------------------------------------------------|   
G |--------------------------------------------------------------------------|  
C |--------------------------------------------------------------------------| 

************************************ 
\\ Downward pitchbending with Whammy pedal  
TR Tremolo 

************************************ 

Compartilhe esta música: novo

QR Code
Copiar