Somewhere To Run

Krewella

Tom: F
Main Riff (4x) 
e|----------------------------------------| 
B|----------------------------------------| 
G|----------------------------------------| 
D|-----10-8-6------8-6-5------6-5---------| 
A|-8-8---------6-6--------5-5-----8-4-5-6-| 
E|----------------------------------------| 

Verse (4x) 
e|-------------| 
B|-------------| 
G|-------------| 
D|-------------| 
A|-8x-6x-5x-4x-| 
E|-------------| 

Pre Chorus 
   F  Bb  F  Bb  
e|-8------8----------------------------| 
B|-10--6--10--6------------------------| 
G|-10--7--10--7------------------------| 
D|-10--8--10--8------------------------| 
A|-8------8-------8x-6x-5x-4x-8x-6x-5x-| 
E|-------------------------------------| 

Main Riff (4x) 
e|----------------------------------------| 
B|----------------------------------------| 
G|----------------------------------------| 
D|-----10-8-6------8-6-5------6-5---------| 
A|-8-8---------6-6--------5-5-----8-4-5-6-| 
E|----------------------------------------| 

Verse (4x) 
e|-------------| 
B|-------------| 
G|-------------| 
D|-------------| 
A|-8x-6x-5x-4x-| 
E|-------------| 

Pre Chorus 
   F  Bb  F  Bb  
e|-8------8----------------------------| 
B|-10--6--10--6------------------------| 
G|-10--7--10--7------------------------| 
D|-10--8--10--8------------------------| 
A|-8------8-------8x-6x-5x-4x-8x-6x-5x-| 
E|-------------------------------------| 

Main Riff (4x) 
e|----------------------------------------| 
B|----------------------------------------| 
G|----------------------------------------| 
D|-----10-8-6------8-6-5------6-5---------| 
A|-8-8---------6-6--------5-5-----8-4-5-6-| 
E|----------------------------------------| 

Bridge (4x)    (12x) 
e|--------|---------|---| 
B|--------|---------|---| 
G|-10-8-7-|---------|---| 
D|--------|---------|-3-| 
A|-8--6-5-|-3p1-----|-3-| 
E|--------|-----3p1-|-1-| 

Main Riff (9x) 
e|----------------------------------------|----| 
B|----------------------------------------|----| 
G|----------------------------------------|-10-| 
D|-----10-8-6------8-6-5------6-5---------|----| 
A|-8-8---------6-6--------5-5-----8-4-5-6-|-8--| 
E|----------------------------------------|----| 

Outro (3x)     
e|--------| 
B|--------| 
G|-10-8-7-| 
D|--------| 
A|-8--6-5-| 
E|--------|  

Compartilhe esta música: novo

QR Code
Copiar