Live For The Night

Krewella

I'm not sure that this is 100% accurate, But I think it's 98%.  
Tabbed by ear. 

This is the main riff goes through the song -  

e|--2-2-1-2---2-2-4-1-2-|--2-2-1-2---2-2-1-----| 
B|----------4-----------|----------4-------2---| 
G|----------------------|--------------------3-| 
D|----------------------|----------------------| 
A|----------------------|----------------------| 
E|----------------------|----------------------| 

And this is the intro - 

|--2---6-4-2-4-2-------|--9b10--2~--9b10--2~--| 
|----2-----------2-2---|----------------------| 
|--------------------3-|----------------------| 
|----------------------|----------------------| 
|----------------------|----------------------| 
|----------------------|----------------------| 

Compartilhe esta música: novo

QR Code
Copiar