Love Song

Korn

Tuning: (ADGCFad) 
 
Intro 1 
Do a few in-rhythm strums of this power chord. 
 
|--------------------------------------------------|| 
|--------------------------------------------------|| 
|--------------------------------------------------|| 
|--------------------------------------------------|| 
|--4-----------------------------------------------|| 
|--2-----------------------------------------------|| 
|--------------------------------------------------|| 
 
Intro 2/Verse 
 
(Sounds pretty good with the pick up switch flicked closest to you) 
 
Repeat 8 times or so 
 
|----------------------------------------------------------|| 
|----------------------------------------------------------|| 
|----------------------------------------------------------|| 
|----------------------------------------------------------|| 
|-4------2-----2----------2--------2-2---------------------|| 
|-2--------------------------------------------------------|| 
|-----0-----0---------0--------0---------0-----------------|| 
 
Pre-Chorus 
(Don't do the three 355 power chords on the fourth repitition) 
|--------------------------------------------------|| 
|--------------------------------------------------|| 
|--------------------------------------------------|| 
|---7777---88-8---55-5-----------------------------|| 
|---7777---88-8---55-5-----------------------------|| 
|---5555---66-6---33-3-----------------------------|| 
|--------------------------------------------------|| 
           ..     ..         < Palm Muted. 
 
Chorus 
 
 
|--------------------------------------------------|| 
|--------------------------------------------------|| 
|--------------------------------------------------|| 
|--------------------------------------------------|| 
|--------------------------------------------------|| 
|--------------------------------------------------|| 
|--345-353-35-42321--------------------------------|| 
 
Verse 
(Repeat this about 4 times) 
|----------------------------------------------------------|| 
|----------------------------------------------------------|| 
|----------------------------------------------------------|| 
|----------------------------------------------------------|| 
|-4------2-----2----------2--------2-2---------------------|| 
|-2--------------------------------------------------------|| 
|-----0-----0---------0--------0---------0-----------------|| 
 
Pre-Chorus 
) 
|--------------------------------------------------|| 
|--------------------------------------------------|| 
|--------------------------------------------------|| 
|---7777---88-8---55-5-----------------------------|| 
|---7777---88-8---55-5-----------------------------|| 
|---5555---66-6---33-3-----------------------------|| 
|--------------------------------------------------|| 
           ..     ..         < Palm Muted. 
(Don't do the three 355 power chords on the fourth repitition) 
Instead, do this quickly- 
 
Fill 
 
|--------------------------------------------------|| 
|--------------------------------------------------|| 
|--------------------------------------------------|| 
|--------------------------------------------------|| 
|--------------------------------------------------|| 
|--------------------------------------------------|| 
|---33332------------------------------------------|| 
    .....       < Palm Muted. 
 
Play the Chorus. 
 
First bridge- 
(All Open notes are palm muted) 
 
Play this twice. 
 
|--------------------------------------------------|| 
|--------------------------------------------------|| 
|--------------------------------------------------|| 
|-------5-----55----------7-----77-----------------|| 
|-------5-----55----------7-----77-----------------|| 
|--0-00-3--00-33-----0-00-5--00-55-----------------|| 
|--------------------------------------------------|| 
 
 
|--------------------------------------------------|| 
|--------------------------------------------------|| 
|--------------------------------------------------|| 
|-------6------66-----------4-----44---------------|| 
|-------6------66-----------4-----44---------------|| 
|--0-00-4--00--44-----0-00--2-00--22---------------|| 
|--------------------------------------------------|| 
 
 
Bridge 2 - i haven't figured this part out yet 
After Bridge 2 Jonathan sings the Chorus but with no instruments playing behind him. 
 
Outro = Play The Chorus 

Compartilhe esta música: novo

QR Code
Copiar