Hollow Life

Korn

Tom: A
 
Tuning: 1 Step Down (A D G C F A D) 
 
INTRO: 
|-----------| 
|-----------| 
|-12--11--9-| 
|-----------| 
|-----------| 
|-----------| 
|-----------| 
 
VERSE: (guitar 1) 
|-------------| 
|-------------| 
|-------------| 
|-------------| 
|-------------| 
|----/5-----3-| 
|-3------6----| 
 
VERSE: (guitar 2) 
|-----------------------------------| 
|-----------------------------------| 
|-12--11--9---12--14--9---12--11--9-| 
|-----------------------------------| 
|-----------------------------------| 
|-----------------------------------| 
|-----------------------------------| 
 
CHORUS: (guitar 1) 
|----------------------------| 
|----------------------------| 
|----------------------------| 
|----------------------------| 
|--------10-9---------10-8---| 
|-10--8---8-7--10--8---8-6-8-| 
|--8--6---------8--6-------6-| 
 
CHORUS: (guitar 2) 
|---------------| 
|---------------| 
|-12--13--15-10-| 
|--x---x---x--x-| 
|-10--11--13--8-| 
|---------------| 
|---------------| 
 
INTERLUDE: (guitar 1) 
|---------------| 
|---------------| 
|---------------| 
|---------------| 
|---------------| 
|-44-5-6--4/5-6-| 
|-22-3-4--2/3-3-| 
 
INTERLUDE: (guitar 2) 
|----------------| 
|----------------| 
|-10---9---9---7-| 
|--X---X---X---X-| 
|--8---7---7---5-| 
|----------------| 
|----------------| 
 
 
 
_______________________________________________________ 
Contribuição: Carlos Alberto Bueno da Silva([email protected]) 

Compartilhe esta música: novo

QR Code
Copiar