Coming undone

Korn

Tom: D
Tuning : 7 String Tuned Low to High (A D G C F a d) 
 
 
 
Intro: 
d|----------------------------| 
a|----------------------------| 
F|----------------------------| 
C|----------------------------| 
G|----------------------------| 
D|----------------------------| 
A|-555-5-555-5-555-5-555-5-55-| 
 
Verse: 
d|----------------------------| 
a|----------------------------| 
F|----------------------------| 
C|----------------------------| 
G|----------------------------| 
D|----------------------------| 
A|-555-5-555-5-555-5-555-5-55-| 
 
Pre-Chorus: 
d|---------------------------|-------------------------| 
a|---------------------------|-------------------------| 
F|---------------------------|-------------------------| 
C|-9-9-----------------------|-9-9---------------7^~~~-| 
G|-7-7-10-10-------------8~~-|-7-7-10-10---------------| 
D|----- 8- 8-10-10-7-(7)-6~~-|----- 8- 8-10-10-7-------| 
A|----------- 8- 8-5-(5)-----|----------- 8- 8-5-------| 
 
Chorus: 
d|-------------------|-----------------| 
a|-------------------|-----------------| 
F|-------------------|-----------------| 
C|-14~~--------------|-14~~------------| 
G|-xx---7-7-8-8-10\8-|-xx---7-7-8-8-5~-| 
D|-12~~-7-7-8-8-10\8-|-12~~-7-7-8-8-5~-| 
A|------5-5-6-6- 8\6-|------5-5-6-6-3~-| 
 
Fill1: 
d|--------------| 
a|--------------| 
F|--------------| 
C|--------------| 
G|--------------| 
D|-7777----7777-| 
A|-5555----5555-| 
   ....    ....   .palm mute 
 
Verse: 
d|----------------------------| 
a|----------------------------| 
F|----------------------------| 
C|----------------------------| 
G|----------------------------| 
D|----------------------------| 
A|-555-5-555-5-555-5-555-5-55-| 
 
Pre-Chorus: 
d|---------------------------|-------------------------| 
a|---------------------------|-------------------------| 
F|---------------------------|-------------------------| 
C|-9-9-----------------------|-9-9---------------7^~~~-| 
G|-7-7-10-10-------------8~~-|-7-7-10-10---------------| 
D|----- 8- 8-10-10-7-(7)-6~~-|----- 8- 8-10-10-7-------| 
A|----------- 8- 8-5-(5)-----|----------- 8- 8-5-------| 
 
Chorus: 
d|-------------------|-----------------| 
a|-------------------|-----------------| 
F|-------------------|-----------------| 
C|-14~~--------------|-14~~------------| 
G|-xx---7-7-8-8-10\8-|-xx---7-7-8-8-5~-| 
D|-12~~-7-7-8-8-10\8-|-12~~-7-7-8-8-5~-| 
A|------5-5-6-6- 8\6-|------5-5-6-6-3~-| 
 
Bridge1: 
d|-------------------------------------| 
a|-------------------------------------| 
F|-2020202020202020--------------------| 
C|-xxxxxxxxxxxxxxxx--9-9--10-10--12-12-| 
G|-1818181818181818--9-9--10-10--12-12-| 
D|-------------------7-7-- 8- 8--10-10-| 
A|-------------------------------------| 
                     . .   .  .   .  .    .palm mute 
 
Bridge2: 
d|-----------------| 
a|-----------------| 
F|-----------------| 
C|-----------------| 
G|-----------------| 
D|-----------------| 
A|-5^~~5~\4~\3~\2~-| 
 
Chorus: 
d|-------------------|-----------------| 
a|-------------------|-----------------| 
F|-------------------|-----------------| 
C|-14~~--------------|-14~~------------| 
G|-xx---7-7-8-8-10\8-|-xx---7-7-8-8-5~-| 
D|-12~~-7-7-8-8-10\8-|-12~~-7-7-8-8-5~-| 
A|------5-5-6-6- 8\6-|------5-5-6-6-3~-| 
 
d|-161616161616202020191919-| 
a|--------------------------| 
F|--------------------------| 
C|--------------------------| 
G|--------------------------| 
D|--------------------------| 
A|--------------------------| 
 
Outro: 
d|-------| 
a|-------| 
F|-------| 
C|-------| 
G|-------| 
D|-------| 
A|-5-/5~-| 
 
 
 

Compartilhe esta música: novo

QR Code
Copiar